Home » N » Nico Vinz »

Nico Vinz - When The Day Comes Bass

Artists:  A B C D E F G H I J K L M N O P Q R S T U V W X Y Z # 

When The Day Comes Bass

(ver. 1) Click to play this song!
Nico Vinz
 Rating:
4.3/5 (29 votes)
                [Intro]

G|--------/12-10-9-/5---------------5---------------------------------------------------|
D|---------------------5-7-5h7p5--------------------------------------------------------|
A|--------------------------------7---7h8-8h10------------------------------------------|
E|----------------------------------------------3-/8------------------------------------|

[Chorus](x2)

G|----------------------------------------------|
D|----------------------------------------------|
A|-------7h8---8p7--5-10----12-10-7-8--8-7-5-5--|
E|---/8-----------------------------------------|            
Submit corrections

↑ Back to top | Tablatures and chords for acoustic guitar and electric guitar, ukulele, drums are parodies/interpretations of the original songs. You may use it for private study, scholarship, research or language learning purposes only