Home » N » Nicotine »

Nicotine - Punk Rock City Tabs

Artists:  A B C D E F G H I J K L M N O P Q R S T U V W X Y Z # 

Punk Rock City Tabs

(ver. 1) Click to play this song!
Nicotine
Nicotine - Punk Rock City
Short little punk song with bad English.
Featured on Fat Wreck's Short Music For Short People, as well as Nicotine's Samurai Shot. 


~=let ring for 3 seconds.

 4/4  Riff 1  X12
|---------------|
|---------------|
|-9-------------|
|-9--6--7--9----|
|-7--6--7--9----|
|----4--5--7----|

  Riff 2  x4
|----------------|
|----------------|
|-9--------------|
|-9--11--7--9----|
|-7--11--7--9----|
|-----9--5--7----|

  Outro 
|------|
|------|
|-9~-9-|
|-9--9-|
|-7--7-|
|------|


You could rest here every day!

scr*pped.web1000.com
            
Submit corrections

↑ Back to top | Tablatures and chords for acoustic guitar and electric guitar, ukulele, drums are parodies/interpretations of the original songs. You may use it for private study, scholarship, research or language learning purposes only