» » »

Nickel Creek - Toxic (madolin) Tabs

Artists:  A B C D E F G H I J K L M N O P Q R S T U V W X Y Z # 

Toxic (madolin) Tabs

(ver. 1) Click to play this song!
Nickel Creek
 Rating:
4/5 (4 votes)

 Toxic  (madolin) lessons Tabs too difficult? Try these video lessons and learn fast
 
                here's the chords and the intro to
nickel creek cover of toxic (by britney
spears) know even though i hate britney spears 
i tabbed it out because nickel creek
did a awsome cover of it!!!!

i tabbed the chords (I mainly just 
strum the g string)  i tabbed out
the intro that chris and sara  
 play, of course u play the intro
through-out the song   enjoy =D!
comment me!!! plz thanks =) 


intro:  (play fast)
G|-5-5-8-7-5-7-8--5-8-7-5----------------
D|---------------------------------------
A|---------------------------------------
E|-------------------------14-10-11-10-8-


veres:
G|-5--3------------
D|-5--2------------
A|-5--5------------ 
E|-x--0------------



chorus:
G|--5--8-7-6-5----------------------||
D|--5--8-7-6-5----------------------||
A|--3--6-5-4-3----------------------||
E|--x--x-x-x-x----------------------||
 
hope u like it!! 
            
Submit corrections


        Toxic  (madolin) lessons Hard to play? Try these video lessons and learn fast Toxic  (madolin) lessons
        
↑ Back to top | Tablatures and chords for acoustic guitar and electric guitar, ukulele, drums are parodies/interpretations of the original songs. You may use it for private study, scholarship, research or language learning purposes only