» » »

Nickel Creek - Hand Song Tabs

Artists:  A B C D E F G H I J K L M N O P Q R S T U V W X Y Z # 

Hand Song Tabs

(ver. 2) Click to play this song!
Nickel Creek
 Rating:
4/5 (4 votes)


 Hand Song lessons Tabs too difficult? Try these video lessons and learn fast
 
                "(2)
Capo 4

NTRO
   D2	   G	  Bm	   A		D2		    Bm	A
e--0-------------------------------0-----3-----2-0----------------
B----3---------3-------3-2-----2-3---3-----------------3-3-----2-3
G------2-0-------0-----4-2-------------2-----0---------4-4--------
D--0---------0-------4-------2-----0-----------------4-------2----
A------------------2-------0-----------------------2-------0------
E----------3-------------------------------3----------------------
   D2	   G	  Bm	   A		D2		    Bm	
e--0-------------------------------0-----3-----2-0-----------
B----3---------3-------3-2-----2-3---3-----------------3-3---R
G------2-0-------0-----4-2-------------2-----0---------4-4---E
D--0---------0-------4-------2-----0-----------------4-------S
A------------------2-------0-----------------------2-------0-T
E----------3-------------------------------3-----------------

VERSE
	F#m		   G		D2		A2
e----------------------------------------0-------0-------0-------0-
B--0-------------0-------3-------3-----3-------3---------0-------0-
G----3---3-----3-------0-------0-----2-------2---------2-------2---
D------4-----4-------0-------0-----0-------0---------2-------2-----
A--------------------------------------------------0-------0-------
E--2-------2-------3-------3---------------------------------------

	F#m		   G		D2		A2
e--------0-------0-----------------------0-------0-------0-------0-
B------------------------3-------3-----3-------3---------0-------0-
G----3---------3-------0-------0-----2-------2---------2-------2---
D------4-----4-------0-------0-----0-------0---------2-------2-----
A--------------------------------------------------0-------0-------
E--2-------2-------3-------3---------------------------------------

	F#m		   G		D2		A2
e--------------------------------0---------------------------------
B--------0-------0-------0---------------0-------0-------0-------0-
G------0-------3-------4-------2-------0-------3-------4-------2---
D----2-------4-------4-------2-------2-------4-------4-------2-----
A------------------2-------0-----------------------2-------0-------
E--0-------2-----------------------0-------2-----------------------

CHORUS/INTRO

VERSE 

CHORUS



There's a little lead into the violin solo that goes:

e--0----------------------
B----3-2-3-----0----------R
G--------------0-------2--E
D--0---------2---2---0----S
A-------------------------T
E----------0-------2------

Then play the verse during the violin solo and the chorus during the mandolin solo, 
the mandolin solo ends with:

e--------0-----------------------0---------
B------3-------3-------3-------3-----2-----
G----2-------2---2---2---3---2---------3---
D--0-------0-------0-------0-------------0-
A------------------------------------------
E------------------------------------------

Just follow the pattern above and play verse and chorus when they come along, the song 
ends with the chorus part.

"            
Submit corrections



        Hand Song lessons Hard to play? Try these video lessons and learn fast Hand Song lessons
        
↑ Back to top | Tablatures and chords for acoustic guitar and electric guitar, ukulele, drums are parodies/interpretations of the original songs. You may use it for private study, scholarship, research or language learning purposes only