» » »

Nickel Creek - The Hand Song - Mandolin Tabs

Artists:  A B C D E F G H I J K L M N O P Q R S T U V W X Y Z # 

The Hand Song - Mandolin Tabs

(ver. 1) Click to play this song!
Nickel Creek
 Rating:
4/5 (4 votes)

 The Hand Song - Mandolin lessons Tabs too difficult? Try these video lessons and learn fast
 
                The Hand Song
Nickel Creek

This isn't the complete song, but i haven't had time to sort out the rest - 
thought i'd post what i had.  If anyone wants to finish it, feel free to add 
to (or delete) what i've done already.  

Mandolin Fills

0:40                    
   T            T
|--------------------14-------------------14------
|---------------------------16-18-16--------------
|--10--12--13--11---------------------------------
|-------------------------------------------------


1:43
|-------------------------------------------------
|----11/13--13--11--9-----------------------------
|----------------------11/13--11--9--8--9--11-----
|-------------------------------------------------(more)

 2:30
|-----------------------------------------------------------
|--8—9--9/11—9----------------------------------------------
|---------------11--9--8--6---------------------------------
|----------------------------11—8—10—11—11—10--11—-(more)---

3:12
			      Rest
|-------------------------------------------------
|---13--13--13--13--13/16--16--13-----------------
|----------------------------------16-------------
|-------------------------------------------------


3:25                         

|-------------------------------------------------
|--------------11---------------------------------
|--11--13--16------15---------(more)--------------
|-------------------------------------------------

3:33                    
            H          H
|-------------------------------------------------
|------------------9--11--9-----------------------
|------11--13--11---------------------------------
|-------------------------------------------------
            
Submit corrections


        The Hand Song - Mandolin lessons Hard to play? Try these video lessons and learn fast The Hand Song - Mandolin lessons
        
↑ Back to top | Tablatures and chords for acoustic guitar and electric guitar, ukulele, drums are parodies/interpretations of the original songs. You may use it for private study, scholarship, research or language learning purposes only