» » »

Nickel Creek - The Fox Mandolin Solo (this One Is Tabs

Artists:  A B C D E F G H I J K L M N O P Q R S T U V W X Y Z # 

The Fox Mandolin Solo (this One Is Tabs

(ver. 1) Click to play this song!
Nickel Creek
 Rating:
4/5 (4 votes)

 The Fox Mandolin Solo (this One Is lessons Tabs too difficult? Try these video lessons and learn fast
 
                (Correct)
The Fox    Key of A    This is the correct solo Chris plays.

|---|-------------|-----0---0-------|-------------0-0-|-----0-2-0-------|
|-4*|-----0-2-4-5-|-4-7---7---7-0-5-|-4-0-2----0------|-4-7-------4-2---|
|-4*|-2-4---------|-----------------|-------6---------|-----------------|
|---|-------------|-----------------|-----------------|-----------------|
      |_| |_| |_|   |_| |_| |_| |_|   |_| |_|  |  |_|   |_| |_| |_| |_|

|---------------0-|-----0-0---------|---------2-0---0-|-------0-------0-|
|-5-2-4-0-2-0-0---|-2-4-----420-2-4-|-5---0-5-----5---|-2-4-0---2-0-----|
|-----------------|-----------------|---0-------------|-------------6---|
|-----------------|-----------------|-----------------|-----------------|
  |_| |_| |_| |_|   |_| |_| |3| |_|   |_| |_| |_| |_|   |_| |_| |_| |_| 

|---0-----0-----0-|-----------------|-------------0-3-|-2-----5-----2---|
|-0-----0-----0---|-2-0-----------2-|-4---0-2-4-5-----|-----0-----0-----|
|-----7-----7-----|-----6-2-0-2-6---|---5-------------|---0-----0-----0-|
|-----------------|-----------------|-----------------|-----------------|
  |_| |_| |_| |_|   |_| |_| |_| |_|   |_| |_| |_| |_|   |_| |_| |_| |_|

|-0---------0---0-|---0---0---0-----|---0-------------|-----------------|
|---5-4-2-0---0---|-2---5---4---2---|-0-------0-------|-----------------|
|-----------------|---------------6-|-----2-4---4-2-6-|-----------------|
|-----------------|-----------------|-----------------|-2---------------|
  |_| |_| |_| |_|   |_| |_| |_| |_|   |_| |_| |_| |_|   |
            
Submit corrections


        The Fox Mandolin Solo (this One Is lessons Hard to play? Try these video lessons and learn fast The Fox Mandolin Solo (this One Is lessons
        
↑ Back to top | Tablatures and chords for acoustic guitar and electric guitar, ukulele, drums are parodies/interpretations of the original songs. You may use it for private study, scholarship, research or language learning purposes only