» » »

Nickel Creek - The Fox (mandolin) Tabs

Artists:  A B C D E F G H I J K L M N O P Q R S T U V W X Y Z # 

The Fox (mandolin) Tabs

(ver. 2) Click to play this song!
Nickel Creek
 Rating:
4/5 (4 votes)


 The Fox (mandolin) lessons Tabs too difficult? Try these video lessons and learn fast
 
                "(Solo)
(Correct)
E[-------------0-0---------------0---0-0-2-0---------
A[-----0-2-4-5-----2-5-4-0-2---0---4---------4-2-4-5-
D[-2-4-----------------------6-----------------------
G[---------------------------------------------------

E[-----0---------------------------2-0---0-----------
A[-2-4---0/2-2-4-4-2-0-2-4-5 0 2 5-----5---2-4-4 2-0-
D[---------------------------------------------------
G[---------------------------------------------------

E[-----------------------------------------0-2-2-2---
A[---0---0-0-0-0-2-0-----------0-2-0-2-4-5-----------
D[-4---4-------------4-2-0-2-4-----------------------
G[---------------------------------------------------

E[-5-2-2-0-------------------------------------------
A[---------5-4-2-0-2-4-5-2-5-4-2-0-------0-----------
D[---------------------------------4-2-4---4-2-------
G[---------------------------------------------6-2---

"            
Submit corrections



        The Fox (mandolin) lessons Hard to play? Try these video lessons and learn fast The Fox (mandolin) lessons
        
↑ Back to top | Tablatures and chords for acoustic guitar and electric guitar, ukulele, drums are parodies/interpretations of the original songs. You may use it for private study, scholarship, research or language learning purposes only