» » »

Nickel Creek - The Fox (100% Accurate Mandolin Solo Tab) Tabs

Artists:  A B C D E F G H I J K L M N O P Q R S T U V W X Y Z # 

The Fox (100% Accurate Mandolin Solo Tab) Tabs

(ver. 1) Click to play this song!
Nickel Creek
 Rating:
4/5 (4 votes)

 The Fox (100% Accurate Mandolin Solo Tab) lessons Tabs too difficult? Try these video lessons and learn fast
 
                This is bengolfn's (excellent) "The Fox" tab with a few minor corrections.

|---|-------------|-----0---0-------|-------------0-0-|-----0-2-0-------|
|-4*|-----0-2-4-5-|-4/7---7---7-2-5-|-4-0-2----0------|-4/7-------4-2-4-|
|-4*|-2-4---------|-----------------|-------6---------|-----------------|
|---|-------------|-----------------|-----------------|-----------------|
      |_| |_| |_|   |_| |_| |_| |_|   |_| |_|  |  |_|   |_| |_| |_| |_|

|-------0-------0-|-----0-0---------|---------2-0---0-|-------0-------0-|
|-5-2-4---0h2-2---|-2-4-----420-2-4-|-5---0-5-----5---|-2-4-0---2-0-----|
|-----------------|-----------------|---0-------------|-------------6---|
|-----------------|-----------------|-----------------|-----------------|
  |_| |_| |_| |_|   |_| |_| |3| |_|   |_| |_| |_| |_|   |_| |_| |_| |_| 

|---0-----0-----0-|-----------------|-------------0-3-|-2-----5---2-----|
|-0-----0-----0---|-2-0-----------2-|-4---0-2-4-5-----|-----0---0-----0-|
|-----7----/7-----|-----6-2-0-2-6---|---5-------------|---0-------------|
|-----------------|-----------------|-----------------|-----------------|
  |_| |_| |_| |_|   |_| |_| |_| |_|   |_| |_| |_| |_|   |_| |_| |_|  _|

|-0---------0-----|---0---0---0-----|---0-------------|-----------------|
|---5-4-2-0---0-2-|-2---5---4---2---|-0-------0-------|-----------------|
|-----------------|---------------6-|-----2-4---4-2---|-----------------|
|-----------------|-----------------|---------------6-|-2---------------|
  |_| |_| |_| |_|   |_| |_| |_| |_|   |_| |_| |_| |_|   |
            
Submit corrections


        The Fox (100% Accurate Mandolin Solo Tab) lessons Hard to play? Try these video lessons and learn fast The Fox (100% Accurate Mandolin Solo Tab) lessons
        
↑ Back to top | Tablatures and chords for acoustic guitar and electric guitar, ukulele, drums are parodies/interpretations of the original songs. You may use it for private study, scholarship, research or language learning purposes only