» » »

Nickel Creek - Stumptown (mandolin) Tabs

Artists:  A B C D E F G H I J K L M N O P Q R S T U V W X Y Z # 

Stumptown (mandolin) Tabs

(ver. 1) Click to play this song!
Nickel Creek
 Rating:
4/5 (4 votes)

 Stumptown (mandolin) lessons Tabs too difficult? Try these video lessons and learn fast
 
                

Part A
E ------------------------------------9-7--------------------
A ----------------------------7--9-11-----11-7---------------
D -----------6-9---6-9-6-9-11------------------11-9-6-9-6----
G -9-11-9-11----------------------------------------------11-

E ------------------------------------------9-7--------------------
A ----------------------------------7--9-11-----11-7---------------
D ------------------6-9--6-9-6-9-11------------------11-9-6----6---
G -11-8-9-9-11-9-11-----------------------------------------11---9-

E -------------------------------------------9-7--------------------
A ----------------------7---6--------7--9-11-----11-7---------------
D -----------------6-9----9---9-9-11------------------11-9-6-9-6----
G -9-8-9-9-11-9-11-----------------------------------------------11-

E -------------------------------------------9-7--------------------
A ----------------------7---6--------7--9-11-----11-7---------------
D -----------------6-9----9---9-9-11------------------11-9-6----6---
G -9-8-9-9-11-9-11-------------------------------------------11---9-


Part B
E -4/7-7-4-0-4-2--2-2-----(2)---2-0-------------------------0-2------------------------------------
A --------------------(6)-----6-----6-4--2-4-0-4----------4-----6-4-2-0-2---2------------0-2-------
D -----------------------------------------------6--6-2-6-----------------6---4--4-----4-----6-4-2-
G ---------------------------------------------------------------------------------4-6-------------

E -4/7-7-4-0-4-2--2-2-----(2)---2-0-------------------------0-2------------------------------------
A --------------------(6)-----6-----6-4--2-4-0-4----------4-----6-4-2-0-2---2------------0-2-------
D -----------------------------------------------6--6-2-6-----------------6---4--4-----4-----6-4-2-
G ---------------------------------------------------------------------------------4-6-------------

E ----------------------------0----------------
A --------------------------------6------6-----
D -6/9-6-2-6-4--4-4-2-4-1-4-----6--------------
G --------------------------6-------4-------4--
            
Submit corrections


        Stumptown (mandolin) lessons Hard to play? Try these video lessons and learn fast Stumptown (mandolin) lessons
        
↑ Back to top | Tablatures and chords for acoustic guitar and electric guitar, ukulele, drums are parodies/interpretations of the original songs. You may use it for private study, scholarship, research or language learning purposes only