» » »

Nickel Creek - Stumptown (mando) Tabs

Artists:  A B C D E F G H I J K L M N O P Q R S T U V W X Y Z # 

Stumptown (mando) Tabs

(ver. 1) Click to play this song!
Nickel Creek
 Rating:
4/5 (4 votes)

 Stumptown (mando) lessons Tabs too difficult? Try these video lessons and learn fast
 
                Tuning : G D A E 	Time Signature: 4/4

 |       |       |       |        E       |       |       |        
|--------------------------------|--------------------------------|
|--------------------------------|----2-------2-------2-------2h--|
|----------------2h--4---2---4/--|6---------------6-------6-------|
|--------------------------------|--------------------------------|

 A       |       |       |        E       |       |       |        
|----0-----------0---2---4---9---|7---4---0-----------------------|
|4-------------------------------|------------4---2-------2-------|
|--------------------------------|--------------------6-------6---|
|--------------------------------|--------------------------------|

 B       |       |       |        E       |       |       |        
|--------------------------------|--------------------------------|
|--------------------------------|----2-------2-------2-------2h--|
|4---------------2h--4---2h--4---|6---------------6-------6-------|
|--------------------------------|--------------------------------|

 A       |       |       |        B       |       |       |        
|----0-----------0---2---4---9---|7---4---0-----------------------|
|4-------------------------------|------------4---2-------2-------|
|--------------------------------|--------------------6-------6---|
|--------------------------------|--------------------------------|

 E       |       |       |        |       |       |       |        
|--------------------------------|--------------------------------|
|--------------------------------|--------------------------------|
|2-------------------------------|--------------------------------|
|--------------------------------|--------------------------------|
            
Submit corrections


        Stumptown (mando) lessons Hard to play? Try these video lessons and learn fast Stumptown (mando) lessons
        
↑ Back to top | Tablatures and chords for acoustic guitar and electric guitar, ukulele, drums are parodies/interpretations of the original songs. You may use it for private study, scholarship, research or language learning purposes only