» » »

Nickel Creek - Somebody More Like You (new Cd!!!) Tabs

Artists:  A B C D E F G H I J K L M N O P Q R S T U V W X Y Z # 

Somebody More Like You (new Cd!!!) Tabs

(ver. 1) Click to play this song!
Nickel Creek
 Rating:
4/5 (4 votes)

 Somebody More Like You (new Cd!!!) lessons Tabs too difficult? Try these video lessons and learn fast
 
                "it took me a while to figure out this song, this is one of my fave song from
the new cd  ENJOY!!!




intro 

E-------------------------------------------0-2-4-4-2-2-0--
B-------------------------------------0-2-4----------------
G----------------------------------------------------------
D----------------------------------------------------------
A-4-4-4-4-4-4-4-4-4-4-4-4-4-4-4-4-4-4---------2-2-2-2-0-0-0   
E---------------------------------------------------------- 


E----------------------0----0-2-4-4---------------
B-2-0---------0-0-2-4----2-----------4-2----------
G-------------------------------------------------
D-------------------------------------------------
A----------------------------------------4-4-4-4-4
E-0-0-0--0-1-2-2-2-2-4-4-4-4--2-2-2-2-------------


E----0-2-4-4-2-2-0----------
B---------------------------
G---------------------------
D---------------------------
A---------2-2-2-2-0-0-0-----
E---------------------------


E----------------------0----0-2-4-4--2-0------------
B-2-0---------0-0-2-4----2--------------------------
G---------------------------------------------------
D---------------------------------------------------
A---------------------------------------------------
E-0-0-0--0-1-2-2-2-2-4-4-4-4--2-2-2-2-----0-0-0-0-0-





verses: (repeat the whole thing 2xs)

E-----------0----------------
B------2-4-----4-4-2---------
G---------------------2-1----
D----------------------------
A-6-4------------------------
E----------------------------


E----------------------0----0-2-4-4-------------------
B-----------0-0-2-4------2----------4-2---------------
G-----------------------------------------------------
D-----------------------------------------------------
A-----------------------------------------------------
E-0-1-2-----------------------------------------------


E-------0----------------
B--2-4-----4-4-2---------
G-----------------2-1----
D------------------------
A------------------------
E------------------------


E---------------------0----0-2-4-4-2-0----------------
B-----------0-0-2-4------2----------------------------
G-----------------------------------------------------
D-----------------------------------------------------
A-----------------------------------------------------
E-0-1-2---------------------------------0-0-0-0-0-----





brige (i only can make out the 1st 2 chords its kinda
 hard to hear cuz of chris's mandolin):(

E---7--5-----------------------------
B---7--5-----------------------------
G---8--6-----------------------------
D---9--7-----------------------------
A---9--7-----------------------------
E---7--5-----------------------------






verse:1

i didnt hear  u say  your sorry, the fault must be mine 
i wish u all the best of luck at finding somebody more like you

verse:2

you said u loved me always truly i must have changed 
cuz u dont need me like u used to i hope u find somebody more like you 


brige:

i hope i finally find someone, 
someone that u trust and give him everything i
 hope u meet someone your height so u can see eye to 
eye with someone as small as you 


(instramental break)

  (u cant really hear sean play in the break so just play the intro 2x'S) 

verse:3

you came out of nowhere made me smile then tore me in two
saying were very differint people so dear, i hope u find 
somebody more like u i hope u find somebody more like you
"            
Submit corrections


        Somebody More Like You (new Cd!!!) lessons Hard to play? Try these video lessons and learn fast Somebody More Like You (new Cd!!!) lessons
        
↑ Back to top | Tablatures and chords for acoustic guitar and electric guitar, ukulele, drums are parodies/interpretations of the original songs. You may use it for private study, scholarship, research or language learning purposes only