» » »

Nickel Creek - Somebody More Like You (mando Tabs

Artists:  A B C D E F G H I J K L M N O P Q R S T U V W X Y Z # 

Somebody More Like You (mando Tabs

(ver. 1) Click to play this song!
Nickel Creek
 Rating:
4/5 (4 votes)

 Somebody More Like You (mando lessons Tabs too difficult? Try these video lessons and learn fast
 
                (Part)


E----------------------------------------------------------------------
A---4-6-7-6-4-----------------------------------------------0--------0-
D-6-----------9-7---------4-6-4-------------4-6-7-6-4-----4---4----6---
G---------------------6-9-------9-8-6-----6-----------9-8--------8-----

E-----------------------------------------------------0-2-4-2-0---
A-----0-------0-------4-6-7-6-4---0-------0-------0-------------6-
D---6---6---6---6---6-----------9---2---2---2---2---2-------------
G-6-------6-------8-------------------2-------2-------------------

E----------------------------------------------------
A-4-2-0----------------------------------------------
D-------6-4-2-1-----6-7-6-7-6-4-2-1------------------
G---------------6-------------------------6--------4-


Bridge:
Bsus4                     A5
i hope i finally find someone,
A5                                      Bsus4
someone that u trust and give him everything i
                         A5
hope u meet someone your height so u can see eye to 
         Bsus4      C#m
eye with someone as small as you


Chords:

   A5   Bsus4  C#m
E--0------0-----0------
A--0------2-----4------
D--2------4-----6------
G--2------4-----6------
            
Submit corrections


        Somebody More Like You (mando lessons Hard to play? Try these video lessons and learn fast Somebody More Like You (mando lessons
        
↑ Back to top | Tablatures and chords for acoustic guitar and electric guitar, ukulele, drums are parodies/interpretations of the original songs. You may use it for private study, scholarship, research or language learning purposes only