» » »

Nickel Creek - Somebody More Like You (correct!!!) Tabs

Artists:  A B C D E F G H I J K L M N O P Q R S T U V W X Y Z # 

Somebody More Like You (correct!!!) Tabs

(ver. 1) Click to play this song!
Nickel Creek
 Rating:
4/5 (4 votes)

 Somebody More Like You (correct!!!) lessons Tabs too difficult? Try these video lessons and learn fast
 
                
"the guitar is tuned down a half step!"


Tuning:  (D# G# C# F# A# D#)

this is the way its tuned in the song 
and i'm pretty sure this is the way sean plays it.
ENJOY!!!!



intro/verses:

D#|-----------------------------------------1-3/5-5---||
A#|-------------------------------------3-------------||
F#|-----------------------------------2---2-----------||
C#|-0-0-0-0-0-0-0-0-0-0-0-0-0-0-0-0-0-----------------||
G#|---------------------------------------------------||
D#|---------------------------------------------------||


D#|-------3---------3-------1---------||
A#|-----------------------------------||
F#|-----------------------------------||
C#|-----------------------------------||
G#|-3-3-3-3-3-3-3-0---1-1-1-1-1-1-1-0-||
D#|-----------------------------------||


|---------------------------------0-1---------1-3/5-5----||
|--3-------1-----------------1-3----------3--------------||
|------------------------3--------------2---2------------||
|----------------------0---0----------0------------------||
|--------------------------------------------------------||
|----1-1-1-1-1-1-1-2-3-----------------------------------||


|----------------------------1-3/5-5-----||
|----------5-------------3---------------||
|----------------------2---2-------------||
|--------------------0-------------------||
|--4-4-4-4-4-4-4-4-----------------------||
|----------------------------------------||


|--------3--------3-------1---------||
|-----------------------------------||
|-----------------------------------||
|-----------------------------------||
|-3-3-3-3-3-3-3-0---1-1-1-1-1-1-1-0-||
|-----------------------------------||


|---------------------------------0-1-----------1-3/5-5----||
|--3-------1-----------------1-3------------3--------------||
|------------------------3----------------2---2------------||
|----------------------0---0-----------0-------------------||
|----------------------------------------------------------||
|----1-1-1-1-1-1-1-2-3-------------------------------------||


|---------3--------1---------------------------------------||
|----------------------------------------------------------||
|----------------------------------------------------------||
|---------------------------------------------------0h2-0--||
|-3-3-3-3-3-3-3-3------------------------------------------||
|--------------------1-1-1-1-1-1-1-1-1-1-1-1-1-1-1---------||



ending:

i hope you find somebody more like you
i hope u find somebody more... like... you.

|--0--------------0-1----------1-3/5-5----------3--------1-------||
|-------3---3---3----------3-------------------------------------||
|---------3---3----------2---2-----------------------------------||
|----------------------0-----------------------------------------||
|--3----1-------------------------------3-3-3-3-3-3-3-3----------||
|--------------------------------------------------------0-------||



bridge:

i just play these chords for the bridge


  B   F#m    A     G#7     
--8----3-----6------5---------------
--8----3-----6------5---------------
--9----3-----7------6---------------
--10---5-----8------7---------------
--10---5-----8------7---------------
--8----3-----6------5---------------

            
Submit corrections


        Somebody More Like You (correct!!!) lessons Hard to play? Try these video lessons and learn fast Somebody More Like You (correct!!!) lessons
        
↑ Back to top | Tablatures and chords for acoustic guitar and electric guitar, ukulele, drums are parodies/interpretations of the original songs. You may use it for private study, scholarship, research or language learning purposes only