» » »

Nickel Creek - Smoothie Song (correct Tabs

Artists:  A B C D E F G H I J K L M N O P Q R S T U V W X Y Z # 

Smoothie Song (correct Tabs

(ver. 1) Click to play this song!
Nickel Creek
 Rating:
4/5 (4 votes)

 Smoothie Song (correct lessons Tabs too difficult? Try these video lessons and learn fast
 
                "(Guitar)
(Solo)
E--------------------------------------------------------------------------------------------------------
B--------------------------------------------------------------------------------------------------------
G---------------------------------------------------0---------------------------------------------------
D----------------------------------------0---2----------2--0------2--0-----------0------------------
A----2--3---2---3--------0--2--3----------------------------3-----------3--2-------3--2--0-----
D--------------------------------------------------------------------------------------------------------


E---------------------------------------------------------------------------------------------
B---------------------------------------------------------------------------------------------
G---------------------------------------------------------0----------------------0-2-4-5--
D-----------------------------------------------0--2---------4--2-0-2-4------------------
A---------------0----------0-2-----0--2-3-------------------------------------------------
D---5---4--5-----4--5----------------------------------------------------------------------


E----------3--2-------2---------------------------2----------------------------------------
B--3--5-------------------1-----------3-----------------1-------3---5----5--3--1------
G-----------------------------------0--------0------------------------------------------0---
D---------------------------------------------------------------------------------------------
A---------------------------------------------------------------------------------------------
D---------------------------------------------------------------------------------------------


E----------1--2--------------------------------------------------
B--------------------3--1------1------------------3------------
G-----------------------------2-----2--0------------------------
D--------------------------------------------3--4-----------------
A-----------------------------------------------------------------
D-----------------------------------------------------------------
"            
Submit corrections


        Smoothie Song (correct lessons Hard to play? Try these video lessons and learn fast Smoothie Song (correct lessons
        
↑ Back to top | Tablatures and chords for acoustic guitar and electric guitar, ukulele, drums are parodies/interpretations of the original songs. You may use it for private study, scholarship, research or language learning purposes only