» » »

Nickel Creek - Smoothie Song Complete Mandolin Tab Tabs

Artists:  A B C D E F G H I J K L M N O P Q R S T U V W X Y Z # 

Smoothie Song Complete Mandolin Tab Tabs

(ver. 1) Click to play this song!
Nickel Creek
 Rating:
3.4/5 (5 votes)

 Smoothie Song Complete Mandolin Tab lessons Tabs too difficult? Try these video lessons and learn fast
 
                "it took me awhile to figure it ouT its doseint sound 100% judt like it but this is how i play it    
its real good  
 

comment me on it!!! :)  sry THERE NOT IN ORDER BUT I CAN FIGURE IT OUT :p


INTRO
e-------------------------------------------------------------------
a--3--5-3-3-3-3-3--5-3-3-3-3-3-5-3-3-3-3-3-5-3-3-5------------------
d-------------------------------------------------------------------
g-------------------------------------------------------------------

INTRO/LEAD
------------------------------------------------------------------
------------------------------------------------------------------
--------0--4--5-5--7-7---10--9--7-7---10--9--7--5---7--3---0--------
-2--5-------------------------------------------------------------

LEAD 2
-------------------------------------------------------------------------------
-------------------------------------------------------------------------------
--------0--4--5-5--7-7---10--9--7-7---10--9--7--5---7--3---0----5-5-5--3-3-3-0-
-2--5--------------------------------------------------------------------------

SOLO
-------------------------------------------------------------------------------
---------------------------3-------------------------------------------------
-----------0--5---7--5-------3--0---1-0------------2-0-------3-5-3-0-----------
-2---5----------------------------------------5----------5---------------------


-------------------------------------------------------------------------------
-------------------------------------------------------------------------------
------------------------------------------3--5--7-10-12-12-12-12-12------------
-0-0--1-1-2-2--3-3----5--7-5-7-5-7-5-7-----------------------------------------


-------------------------------------------------------------------------------
-------------------------------------------------------------------------------
-12-12-12-12----10-10-10-10-10-10-10-10--9-9-9-9-9-9-9-7-7-7-------------------
-------------------------------------------------------------------------------


------------------
------------------
--6-5-4-3-2-1-0---
------------------

LEAD 3

2-----------------2-------------------2------------------------------
---5-3-0-------------5-3-0--------------5-3-0---------------5-3-0----
---------5-3-0-------------5-3-0-0-0----------5-3-0---5-3-0----------
----------------5-----------------------------------5----------------

LEAD/INTRO2
----------------------------------------------------------------------------
-------------------------------------------------------------------------
-4--5-5--7-7-7-7-10--10--9-9-9---7-7-7-12-12-10-10-9-9-7-7-5--7---3-0-------
------------------------------------------------------------------------------


LEAD 4/ENDING 
2---------------------2--------------------2-----------------------------------
-----5-3-0---------------5-3-0----------------5-3-0------------------3-5-------
-----------5-3-0---------------5-3-0-0-0------------5-3-0-------3-5----------
-----------------5----------------------------------------5---------------
"            
Submit corrections


        Smoothie Song Complete Mandolin Tab lessons Hard to play? Try these video lessons and learn fast Smoothie Song Complete Mandolin Tab lessons
        
↑ Back to top | Tablatures and chords for acoustic guitar and electric guitar, ukulele, drums are parodies/interpretations of the original songs. You may use it for private study, scholarship, research or language learning purposes only