» » »

Nickel Creek - Scotch & Chocolate Tabs

Artists:  A B C D E F G H I J K L M N O P Q R S T U V W X Y Z # 

Scotch & Chocolate Tabs

(ver. 1) Click to play this song!
Nickel Creek
 Rating:
4/5 (4 votes)

 Scotch & Chocolate lessons Tabs too difficult? Try these video lessons and learn fast
 
                

Nickel Creek
Why should the fire die?
-Scotch and Chocolate intro tab for mandolin.

Obviously the bars aren't accurate and don't really give a good invitation of the time
they just help me visualise the phrasing better :P though you must bear in mind the triplet time
The way it is played reminds me alot of a step reel, but with the swing..
if you play this to the cd, you'll notice that alot of the intervals I have written are wrong
-->I thought it better to keep the tune fleshed out than keep fretting over how to correct it though,
you can simply take out the lower notes of most chords/intervals to get the sounds to match (I hope)

        |------------|0-----0----0-|4----0----|0----------|----------|0-----------|-----------|
	|-(0)----(0)-|--4-5---0-4--|2----2----|-2/4-2-0---|2--2-4-0--|--2/4-2p0---|02-22p0-2--|
	|2-2---6--7--|----------7--|2----2----|---------4-|2------2--|----------4-|2--00---2--|
	|2-2---6--6--|-------------|----------|-----------|----------|------------|2-------4--|

			     |(fiddle kicks in here)
	|0--------|----------|-0---0----0-0--|0------------|0-------0--1--|
	|-4-2-0---|------0---|--4-5--0-4--2--|-4-2---2-2-4-|2---4-5----0--|
	|-------4-|2---6-7---|---------4-----|----4-2--2---|2----------0--|
	|---------|2---6-6---|---------------|-------------|--------------|

guitar follows here, try playing the beginning of the intro again for that.
	|3-5--10--8-|5\3--3-7-8-|3/5-3-0-----|-------------|  
	|3----8---7-|----7--5-7-|--------5-3-|3h5--55-3-5--|
	|-----------|-----------|----------2-|0----3----3--|
	|-----------|-----------|------------|----------4--|
	
            
Submit corrections


        Scotch & Chocolate lessons Hard to play? Try these video lessons and learn fast Scotch & Chocolate lessons
        
↑ Back to top | Tablatures and chords for acoustic guitar and electric guitar, ukulele, drums are parodies/interpretations of the original songs. You may use it for private study, scholarship, research or language learning purposes only