» » »

Nickel Creek - Ode To A Butterfly (mandolin Tab) Tabs

Artists:  A B C D E F G H I J K L M N O P Q R S T U V W X Y Z # 

Ode To A Butterfly (mandolin Tab) Tabs

(ver. 1) Click to play this song!
Nickel Creek
 Rating:
4.2/5 (5 votes)

 Ode To A Butterfly (mandolin Tab) lessons Tabs too difficult? Try these video lessons and learn fast
 
                

Part 1
E|0-0-|0-------0-----0-|0-4-2-0-----0---|--0-0---0---0-2-|4-4-2-0-2-0-----|
A|4/7-|----7-------7---|--------4-----4-|2---4-/-7-------|------------4-0-|
D|----|----------------|----------------|----------------|----------------|
G|----|----------------|----------------|----------------|----------------|
  |    |   |   |   |    |   |   |   |    |   |   |   |    |   |   |   |    
E|--2-----2-----2-|4-4-2-0-----0---|--2-----2-----2-|4-4-2-0-----0---|------------|
A|2-----2-----2---|--------4-----4-|2-----2-----2---|--------4-6---4-|2----------*|
D|----------------|----------------|----------------|----------------|--6-4-6-2--*|
G|----------------|----------------|----------------|----------------|------------|
  |   |   |   |    |   |   |   |    |   |   |   |    |   |   |   |    |   |   |        

Part 2
E|4/7-|7-0-4-2-0-4/9-0-|7-0------12-9-7-----|--0-0-----0420|2---2-4-2---2---|
A|----|----------------|----9/11--------11--|9-----4-24----|--------------0-|
D|----|----------------|--------------------|--------------|----------------|
G|----|----------------|--------------------|--------------|----------------|
                                                     ~~~6~~
       |   |   |   |    |   |    |    |      |   |   |  |   |   |   |   |       
E|--2-----2-----2-|4-442-0-----0---|--2-----2-----2-|4-4-2-0-----0---|------------4/7-|
A|2-----2-----2---|--------4-----4-|2-----2-----2---|--------4-6---4-|2---------------|
D|----------------|----------------|----------------|----------------|--6-4-6-2-------|
G|----------------|----------------|----------------|----------------|----------------|
  |   |   |   |    |   |   |   |    |   |   |   |    |   |   |   |    |   |   |   |     
E|7-0-4-2-0-4/9-0-|7-0------12-9-7-----|--0-0-----0420|2---2-4-2---2---|--2-----2-----4-|
A|----------------|----9/11--------11--|9-----4-24----|--------------0-|1-----1-----1---|
D|----------------|--------------------|--------------|----------------|----------------|
G|----------------|--------------------|--------------|----------------|----------------|
                                                ~~~6~~
  |   |   |   |    |   |    |    |      |   |   |  |   |   |   |   |    |   |   |   |   
E|2-0-------------|--2---4-2-0-----|----------------|--4-----4-----5-|4-2-0-----------|
A|----6-4-2---0---|1---1-------6-4-|2---2-4-2---2-2-|3-----3-----3---|------6-4---4-2-|
D|----------------|----------------|----------------|----------------|----------------|
G|----------------|----------------|----------------|----------------|----------------|
  |   |   |   |    |   |   |   |    |   |   |   |    |   |   |   |    |   |   |   |
E|--4---5-4-2-0---|----0-----------|--4-0-----5-2---|0---0---0-----0-|0-4-2-0-----0---|
A|3---3---------6-|4-6---4-1-2-4-1-|0-----4-2-----6-|----4/7-----7---|--------4-----4-|
D|----------------|----------------|----------------|----------------|----------------|
G|----------------|----------------|----------------|----------------|----------------|
  |   |   |   |    |   |   |   |    |   |   |   |    |   |   |   |    |   |   |   |
E|--0-0---0---0-2-|4-4-2-0-2-0-----|--2-----2-----2-|4-4-2-0-----0---|--2-----2-----2-|
A|2---4---7-------|------------4-0-|2-----2-----2---|--------4-----4-|2-----2-----2---|
D|----------------|----------------|----------------|----------------|----------------|
G|----------------|----------------|----------------|----------------|----------------|
  |   |   |   |    |   |   |   |    |   |   |   |    |   |   |   |    |   |   |   |
E|4-4-2-0-----0---|----------------|
A|--------4-6---4-|2---------------|
D|----------------|--6-4-6-2-------|
G|----------------|----------------|
  |   |   |   |    |   |   |   |   

Bridge
E|----------------|----------------|----0---------0-|----0-----------|----------------|
A|----------0-2-4-|5-0-------0-4/5-|--9---5-4---0---|--0-----0---0-4-|2-0-------------|
D|----------------|----4-2-0-------|0---------9-----|7-----7---------|----6-4-2---2-4-|
G|----------------|----------------|----------------|----------------|----------------|
  |   |   |   |    |   |   |   |    |   |   |   |    |   |   |   |    |   |   |   |
E|----------------|----------------|----0---------4/|5-5-4---0-------|----------------|
A|----------------|--------------4/|5-9---5-4---0---|------9-----2-4-|5-0-------0-4/5-|
D|5-0---------4/5-|--9---5-4---0---|----------9-----|----------------|----4-2-0-------|
G|----4-2-0-------|0---------9-----|----------------|----------------|----------------|
  |   |   |   |    |   |   |   |    |   |   |   |    |   |   |   |    |   |   |   |
E|----0---------0-|----0-----------|----------------|----------------|----------------|
A|--9---5-4---0---|--0-----0---0-4-|2-0-------------|----------------|--------------4/|
D|0---------9-----|7-----7---------|----6-4-2---2-4-|5-0---------4/5-|--9---5-4---0---|
G|----------------|----------------|----------------|----4-2-0-------|0---------9-----|
  |   |   |   |    |   |   |   |    |   |   |   |    |   |   |   |    |   |   |   |   
E|----0---------4/|5-5-4---0-------|
A|5-9---5-4---0---|------9---------|
D|----------9-----|----------------|
G|----------------|----------------|
  |   |   |   |    |   |   |   |     

Part 1: x2
Part 2: x1
Part 1: x2
Part 2: x1
Bridge: x1
Part 1: x2
Part 2: x1



            
Submit corrections


        Ode To A Butterfly (mandolin Tab) lessons Hard to play? Try these video lessons and learn fast Ode To A Butterfly (mandolin Tab) lessons
        
↑ Back to top | Tablatures and chords for acoustic guitar and electric guitar, ukulele, drums are parodies/interpretations of the original songs. You may use it for private study, scholarship, research or language learning purposes only