» » »

Nickel Creek - Ode To A Butterfly ( Banjo) Tabs

Artists:  A B C D E F G H I J K L M N O P Q R S T U V W X Y Z # 

Ode To A Butterfly ( Banjo) Tabs

(ver. 1) Click to play this song!
Nickel Creek
 Rating:
4/5 (4 votes)

 Ode To A Butterfly ( Banjo) lessons Tabs too difficult? Try these video lessons and learn fast
 
                Ode to a Butterfly intro for banjo
Capo on 2, 5th string capo on 9 
A friend of mine helped me tabbed this out.  

h = hammer on
po = pull off


[------------0--------0--------4-----2--------0--]
[--2h3----3-----3-----------3-----------3--------]
[------------------2-----------------------4-----]
[------------------------------------------------]
[------0-----------------0--------0--------------]

 
[--------------0--------0---------0-----0-----------0--]
[--3--------3-----3------------------------------------]
[-----X-----------------------2h4----------2-----------]
[---------------------------------------------4po2-----]
[--------0-----------0-----0---------0-----------------]


[--------------0--------0--------4-----2--------0--]
[-----------------3-----------3-----------3--------]
[-----X-----X--------2-----------------------4-----]
[--0-----------------------------------------------]
[--------0-----------------0--------0--------------]


[------0--------0--------0---------0-----0----------0-----]
[--2h3-------3-------2h3----------------------------------]
[-----------------X------------2h4----------2-----------X-]
[----------------------------------------------4po2---0---]
[---------0-----------------0---------0-------------------]
                        Repeat 2X
 
                         Then


[------------0--------0--------4-----2--------0--]
[--2h3----3-----3-----------3-----------3--------]
[------------------2-----------------------4-----]
[------------------------------------------------]
[------0-----------------0--------0--------------]

 
[--------------0--------0---------0-----0-----------0--]
[--3--------3-----3------------------------------------]
[-----X-----------------------2h4----------2-----------]
[---------------------------------------------4po2-----]
[--------0-----------0-----0---------0-----------------]


[--------------0--------0--------4-----2--------0--]------]
[-----------------3-----------3-----------3--------]-2h3--]
[-----X-----X--------2-----------------------4-----]------]
[--0-----------------------------------------------]------]
[--------0-----------------0--------0--------------]------]

                   let last note ring


            
Submit corrections


        Ode To A Butterfly ( Banjo) lessons Hard to play? Try these video lessons and learn fast Ode To A Butterfly ( Banjo) lessons
        
↑ Back to top | Tablatures and chords for acoustic guitar and electric guitar, ukulele, drums are parodies/interpretations of the original songs. You may use it for private study, scholarship, research or language learning purposes only