» » »

Nickel Creek - Leaves Fall (thile, Mandolin) Tabs

Artists:  A B C D E F G H I J K L M N O P Q R S T U V W X Y Z # 

Leaves Fall (thile, Mandolin) Tabs

(ver. 1) Click to play this song!
Nickel Creek
 Rating:
4/5 (4 votes)

 Leaves Fall (thile, Mandolin) lessons Tabs too difficult? Try these video lessons and learn fast
 
                "Leaves Fall"
Chris Thile - Stealing Second

this is my first mandolin tab. ive played guitar for 5 years but im 14 and ive 
been playing mandolin for about 2 months so forgive  me if it isnt completly 
correct.



E|--------2-0---------------------------------------------------------------------------
A|-----0-------5-2-0---------2-4-5-4-2--------2--4--5--4--2h4p2-0-----------------
D|--0-----------------0----0------------------5--------------------------4--2--0--2--
G|------------------------4-----------------0-------------------------------------------

E|--------2-0---------------------------------------------------------------------------
A|-----0-------5-2-0---------2-4-5-4-2--------2--4---------2--4----5-----------------
D|--0-----------------0----0------------------5------------2---------------------------
G|------------------------4-----------------0------------2-------------------------------
            
Submit corrections


        Leaves Fall (thile, Mandolin) lessons Hard to play? Try these video lessons and learn fast Leaves Fall (thile, Mandolin) lessons
        
↑ Back to top | Tablatures and chords for acoustic guitar and electric guitar, ukulele, drums are parodies/interpretations of the original songs. You may use it for private study, scholarship, research or language learning purposes only