» » »

Nickel Creek - House Of Tom Bombadil (mandotab) Tabs

Artists:  A B C D E F G H I J K L M N O P Q R S T U V W X Y Z # 

House Of Tom Bombadil (mandotab) Tabs

(ver. 1) Click to play this song!
Nickel Creek
 Rating:
4/5 (4 votes)

 House Of Tom Bombadil (mandotab) lessons Tabs too difficult? Try these video lessons and learn fast
 
                First part

 |       |       |       |        |       |       |       |        
|--------------------------------|--------------------------------|
|--------------------------------|0---2-----------3-----------2---|
|5---5---5---4---5---2---4---5---|--------5---0-------5---0-------|
|--------------------------------|--------------------------------|

 |       |       |       |        |       |       |       |        
|------------------------0-------|--------------------------------|
|----0---------------5-----------|----5---0-----------------------|
|5-------4---5/--7-----------7---|4-----------4---5---4---5---2---|
|--------------------------------|--------------------------------|

 |       |       |       |        |       |       |       |        
|--------------------------------|------------------------0-------|
|--------0---2-----------3-------|----2---------------5-----------|
|4---5-----------5---0-------5---|0-------5/--7---4-----------7---|
|--------------------------------|--------------------------------|

 |       |       |       |        |       |       |       |        
|--------------------------------|--------------------------------|
|--------------------------------|--------------------0---2---3---|
|4---0---5-----------------------|0---2/--5---0---5---------------|
|--------------------------------|--------------------------------|

 |       |       |       |        |       |       |       |        
|----1---0---1-------0-----------|------------------------0---2---|
|----------------5-------3---5---|2---3---0---2---3---5-----------|
|0-------------------------------|--------------------------------|
|--------------------------------|--------------------------------|

 |       |       |       |        |       |       |       |        
|3---7---5---7---3---2---0-------|0-------0---2---4---2---0-------|
|----------------------------5---|----2-----------------------2---|
|--------------------------------|--------------------------------|
|--------------------------------|--------------------------------|

 |       |       |       |        |       |       |       |        
|----0---3---8p--7---3---6---8---|6---------------------------5---|
|3-------------------------------|----8/--6---6---5---1---4-------|
|--------------------------------|--------------------------------|
|--------------------------------|--------------------------------|

 |       |       |       |        |       |       |       |        
|--------------------------------|--------------------------------|
|4---5---0-----------------------|--------------------------------|
|------------4---2---4---5-------|--------------------------------|
|--------------------------------|--------------------------------|

2nd Part


 |       |       |       |        |       |       |       |        
|--------------------------------|--------------------------------|
|----------------0-------0-------|0---0-----------2-------2-------|
|0---5---5---0-------5-------0---|--------0---5-------5-------0---|
|--------------------------------|--------------------------------|

 |       |       |       |        |       |       |       |        
|--------------------------------|--------------------------------|
|----2-----------3-------2-------|--------------------------------|
|5-------0---5-------5-------5---|0---7/--5---4---5---------------|
|--------------------------------|------------------------0---2---|

 |       |       |       |        |       |       |       |        
|--------------------------------|--------------------------------|
|--------------------------------|--------------------------------|
|----0---2---0-------4-------4---|0-------4---0---5---2---5---0---|
|4---------------4-------4-------|----4---------------------------|

 |       |       |       |        |       |       |       |        
|--------------------------------|--------------------------------|
|--------------------------------|--------------------------------|
|----5---2---0---5/--10--10--9---|10--7/--5---4---5---------------|
|4-------------------------------|--------------------------------|

Bridge

|       |       |       |        |       |       |       |        
|--------------------------------|--------------------------------|
|--------------------------------|0---2-----------5-------3-------|
|2/--5---5---4---5---2---4---5---|--------0-------3-------5---5---|
|--------------------------------|------------0-------0-----------|

 |       |       |       |        |       |       |       |        
|0-------------------------------|--------0-----------3-------2---|
|--------5---0-------------------|----5---------------2-------0---|
|----4-----------4---2---0---4---|7-----------5---5-------5-------|
|--------------------------------|--------------------------------|

 |       |       |       |        |       |       |       |        
|--------5-------3---------------|--------------------------------|
|----3---------------5---2---0---|------------------------2---5---|
|5-----------0-------------------|5---0-----------5---0-----------|
|--------------------------------|--------4---2-------------------|

 |       |       |       |        |       |       |       |        
|------------0-------------------|--------------------0-----------|
|----3---------------5---0-------|------------0---5---------------|
|5-------5-------5-----------4---|2---0---4---------------5---5---|
|--------------------------------|--------------------------------|

 |       |       |       |        |       |       |       |        
|3-------2-----------5-------3---|--------------------------------|
|----------------3---------------|5---2---0-----------------------|
|----5-------5-----------0-------|------------5---0-------5-------|
|--------------------------------|--------------------4-----------|
            
Submit corrections


        House Of Tom Bombadil (mandotab) lessons Hard to play? Try these video lessons and learn fast House Of Tom Bombadil (mandotab) lessons
        
↑ Back to top | Tablatures and chords for acoustic guitar and electric guitar, ukulele, drums are parodies/interpretations of the original songs. You may use it for private study, scholarship, research or language learning purposes only