» » »

Nickel Creek - House Of Tom Bombadil (full Mandolin) Tabs

Artists:  A B C D E F G H I J K L M N O P Q R S T U V W X Y Z # 

House Of Tom Bombadil (full Mandolin) Tabs

(ver. 1) Click to play this song!
Nickel Creek
 Rating:
4/5 (4 votes)

 House Of Tom Bombadil (full Mandolin) lessons Tabs too difficult? Try these video lessons and learn fast
 
                

This is the entire song for mandolin.  The time switches mostly between 8/4, 
7/4, and 4/4.  Listen to the song to get a better idea, but the bars here are
correct
Enjoy
- Skachotic

E||------------------------------------|-------------------------------------------|
A||------------------------------------|----------------------0--2--------3--------|
D||------------------------------5--5--|--5----4--5--2--4--5--------5--0-----5--0--|
G||------------------------------------|-------------------------------------------|


                                                                                        
-------------------------0-----------------|-------------------------------------------|
--0-------0--------0--5-----0-----5--0-----|----------------------0--2--------3--------|
-------5-----4--5--------------5--------4--|--5----4--5--2--4--5--------5--0-----5--0--|
-------------------------------------------|-------------------------------------------|


                                                                                              
-------------------------------------------------|-------------------------------------------|
--0-------0-----5----0---------------------------|----------------------0--2--------3--------|
-------5-----4----------4--0--5---------5--5--5--|--5----4--5--2--4--5--------5--0-----5--0--|
-----------------------------------0-------------|-------------------------------------------|


                                                                                        
-------------------------0-----------------|-------------------------------------------|
--0-------0--------0--5-----0-----5--0-----|----------------------0--2--------3--------|
-------5-----4--5--------------5--------4--|--5----4--5--2--4--5--------5--0-----5--0--|
-------------------------------------------|-------------------------------------------|


                                                                          
----------------------------------------------|-----------------------1--|
--0-------0-----5----0------------------------|-----------0--2--3--5-----|
-------5-----4----------4--0--5---------0--2--|--5--0--5-----------------|
-----------------------------------0----------|--------------------------|


                                                                                 
--0--1-----0--------------|--------------0--2--3--7--|--5--7--3--5--2--0-----0--|
--------5-----3--5--2--3--|--0--2--3--5--------------|--------------------5-----|
--------------------------|--------------------------|--------------------------|
--------------------------|--------------------------|--------------------------|


                                                                          
--0-----0--2--4--2--0-----|-----0--3--8--7------6--8--10--6--------------|
-----2-----------------2--|--3--------------10---------------8--6--5-----|
--------------------------|-------------------------------------------8--|
--------------------------|----------------------------------------------|


                                                                        
-----5--0------------------|-------------------------------------------|
--4--------4--5--0---------|----------------------0--2--------3--------|
--------------------4--2-4-|--5----4--5--2--4--5--------5--0-----5--0--|
---------------------------|-------------------------------------------|


                                                                                        
-------------------------0-----------------|-------------------------------------------|
--0-------0--------0--5-----0-----5--0-----|----------------------0--2--------3--------|
-------5-----4--5--------------5--------4--|--5----4--5--2--4--5--------5--0-----5--0--|
-------------------------------------------|-------------------------------------------|


                                                                           
------------------------------------------------|-------------------------|
--0-------0-----5----0--------------------------|----------------------0--|
-------5-----4----------4--0--5--2--0-----------|-------0--5--5--0--------|
---------------------------------------5--4--2--|--0----------------0-----|


                                                                                
--------------------------|--------------------------|-------------------------|
-----0--------0--------2--|-----2--------2--------3--|-----2--------0----------|
--------0--------0--------|--------0--------0--------|-----------0-------4--5--|
--0--------0--------0-----|--0--------0--------0-----|--0-----0----------------|


                                                                                        
--------------------------|--------------------------|---------------------------------|
--------------------------|--------------------------|---------------------------0-1-2-|
-----------0--2--0-----4--|-----4--0-----4-----0--5--|-----5--0-----5-----0--5-6-------|
--0--2--4-----------4-----|--4--------4-----4--------|--4--------4-----4---------------|


                                                                               
-------------------------|-------------------------|--------------------------|
--3--3--2--3--0----------|----------------------0--|-----0--------0--------2--|
-------------------4--5--|-------0--5--5--0--------|--------0--------0--------|
-------------------------|--0----------------0-----|--0--------0--------0-----|


                                                                                
--------------------------|-------------------------|--------------------------|
-----2--------2--------3--|-----2--------0----------|--------------------------|
--------0--------0--------|-----------0-------4--5--|-----------0--2--0-----4--|
--0--------0--------0-----|--0-----0----------------|--0--2--4-----------4-----|


                                                                                       
--------------------------|---------------------------------|-------------------------|
--------------------------|---------------------------0-1-2-|--3--3--2--3--0----------|
-----4--0-----4-----0--5--|-----5--0-----5-----0--5-6-------|-------------------4--5--|
--4--------4-----4--------|--4--------4-----4---------------|-------------------------|


                                                                                        
-------------------------------------------|-------------------------0-----------------|
----------------------0--2--------3--------|--0-------0--------0--5-----0-----5--0-----|
--5----4--5--2--4--5--------5--0-----5--0--|-------5-----4--5--------------5--------4--|
-------------------------------------------|-------------------------------------------|


                                                                                              
-------------------------------------------|-------------------------------------------------|
----------------------0--2--------3--------|--0-------0-----5----0---------------------------|
--5----4--5--2--4--5--------5--0-----5--0--|-------5-----4----------4--0--5---------5--5--5--|
-------------------------------------------|-----------------------------------0-------------|


                                                                                        
-------------------------------------------|-------------------------0-----------------|
----------------------0--2--------3--------|--0-------0--------0--5-----0-----5--0-----|
--5----4--5--2--4--5--------5--0-----5--0--|-------5-----4--5--------------5--------4--|
-------------------------------------------|-------------------------------------------|


                                                                                              
-----------------------------------
            
Submit corrections


        House Of Tom Bombadil (full Mandolin) lessons Hard to play? Try these video lessons and learn fast House Of Tom Bombadil (full Mandolin) lessons
        
↑ Back to top | Tablatures and chords for acoustic guitar and electric guitar, ukulele, drums are parodies/interpretations of the original songs. You may use it for private study, scholarship, research or language learning purposes only