» » »

Nickel Creek - House Carpenter (mandolin Tabs

Artists:  A B C D E F G H I J K L M N O P Q R S T U V W X Y Z # 

House Carpenter (mandolin Tabs

(ver. 1) Click to play this song!
Nickel Creek
 Rating:
4/5 (4 votes)

 House Carpenter (mandolin lessons Tabs too difficult? Try these video lessons and learn fast
 
                (Part)

This is the mandolin part between verses.

Intro
E|----------------|----------------|----------------|----------------|
A|------------2/4-|4-----2-7-----9-|4--20-2---------|2/4-4-----4-7---|
D|----------------|----------------|--------4-------|----------------|
G|----------------|----------------|----------------|----------------|
  1e&a2e&a3e&a4e&a 1e&a2e&a3e&a4e&a 1e&a2e&a3e&a4e&a 1e&a2e&a3e&a4e&a

E|----------------|----------------|----------------|----------------|
A|7-9-4-----------|----------0-2---|4---------------|0-----024/7-420-|
D|--------2-4-7---|79--4--24-------|----2---------24|--4224----------|
G|----------------|----------------|------------46--|----------------|
  1e&a2e&a3e&a4e&a 1e&a2e&a3e&a4e&a 1e&a2e&a3e&a4e&a 1e&a2e&a3e&a4e&a

E|----------------|
A|----------------|
D|0---------------|
G|----------------|
  1e&a2e&a3e&a4e&a


Break 1
E|----------------|----------------|----------------|0-4---20--------|
A|2/4-4-----247---|--9-4--20-2-----|------244-----24|--------4-------|
D|----------------|------------4---|----------------|------------2-4-|
G|----------------|----------------|----------------|----------------|
  1e&a2e&a3e&a4e&a 1e&a2e&a3e&a4e&a 1e&a2e&a3e&a4e&a 1e&a2e&a3e&a4e&a

E|------------------|------------------|-------20---54-2--|-579--------12---|
A|----------------0-|0/2--2/4----------|----024--2/4--4-4/|9----------------|
D|4/7--7/9--4--24---|----------2-2-2--2|4-46--------------|-----------------|
G|------------------|---------------46-|------------------|-----------------|
  1 e&a2 e&a3e&a4e&a 1 e&a2 e&a3e&a4e&a 1e&a2e&a3e &a4e&a  1e&a2e&a3e&a4 e&a

E|14---------------|
A|-----------------|
D|-----------------|
G|-----------------|
  1 e&a2e&a3e&a4e&a

Break 2
E|----------------|----------------|----------------|-----------------|
A|------------2/4-|4-----247-----9-|4--20-2---------|2/4--4-----4/7---|
D|----------------|----------------|--------4-------|-----------------|
G|----------------|----------------|----------------|-----------------|
  1e&a2e&a3e&a4e&a 1e&a2e&a3e&a4e&a 1e&a2e&a3e&a4e&a 1 e&a2e&a3e&a4e&a

E|----------------|-----------------|----------------|-----------------|
A|7-9-1-----------|-----------4-2---|4---------------|0-----024/7--420-|
D|--------2-4/7---|7/9--4--24-------|----2---------24|--4224-----------|
G|----------------|-----------------|------------46--|-----------------|
  1e&a2e&a3e&a4e&a 1 e&a2e&a3e&a4e&a 1e&a2e&a3e&a4e&a 1e&a2e&a3 e&a4e&a

E|----------------|
A|----------------|
D|4---------------|
G|----------------|
  1e&a2e&a3e&a4e&a

Break 3
E|----------------|----------------|----------------|-----------------|
A|------------2/4-|4-----247-----9-|4--20-2---------|2/4--4-----4/7---|
D|----------------|----------------|--------4-------|-----------------|
G|----------------|----------------|----------------|-----------------|
  1e&a2e&a3e&a4e&a 1e&a2e&a3e&a4e&a 1e&a2e&a3e&a4e&a 1 e&a2e&a3e&a4e&a

E|----------------|-----------------|----------------|---20--------2/--|
A|7-9-4-----------|-----------0-2---|4---------------|024--2/4-2-0-----|
D|--------2-4/7---|7/9--4--24-------|----2-2-2--24-46|-----------------|
G|----------------|-----------------|---------46-----|-----------------|
  1e&a2e&a3e&a4e&a 1 e&a2e&a3e&a4e&a 1e&a2e&a3e&a4e&a 1e&a2e &a3e&a4e&a

E|5---------------|
A|----------------|
D|----------------|
G|----------------|
  1e&a2e&a3e&a4e&a
            
Submit corrections


        House Carpenter (mandolin lessons Hard to play? Try these video lessons and learn fast House Carpenter (mandolin lessons
        
↑ Back to top | Tablatures and chords for acoustic guitar and electric guitar, ukulele, drums are parodies/interpretations of the original songs. You may use it for private study, scholarship, research or language learning purposes only