» » »

Nickel Creek - Green And Gray Tabs

Artists:  A B C D E F G H I J K L M N O P Q R S T U V W X Y Z # 

Green And Gray Tabs

(ver. 1) Click to play this song!
Nickel Creek
 Rating:
4/5 (4 votes)

 Green And Gray  lessons Tabs too difficult? Try these video lessons and learn fast
 
                -----0-----------0---------------0----------0--------------------------
-2-4---4-2-0-2-4---4-2-0-------0---0------0----2-2-2-0---2-2-2-0-------
--------------------------4--6------6-4-6--------------5--------------
----------------------------------------------------------------------


-----0-0-0-0---0-0-----------------------------
-----------------------------------------------
-5-7---------7---------------------------------
-----------------------------------------------
            
Submit corrections


        Green And Gray  lessons Hard to play? Try these video lessons and learn fast Green And Gray  lessons
        
↑ Back to top | Tablatures and chords for acoustic guitar and electric guitar, ukulele, drums are parodies/interpretations of the original songs. You may use it for private study, scholarship, research or language learning purposes only