» » »

Nickel Creek - Doubting Thomas (mando-alternative) Tabs

Artists:  A B C D E F G H I J K L M N O P Q R S T U V W X Y Z # 

Doubting Thomas (mando-alternative) Tabs

(ver. 1) Click to play this song!
Nickel Creek
 Rating:
4/5 (4 votes)

 Doubting Thomas (mando-alternative) lessons Tabs too difficult? Try these video lessons and learn fast
 
                Verses

E|---------------|
A|4---4---4---4--|
D|--6---6---6---6|
G|---------------|
  1 & 2 & 3 & 4 &

Play though Verses and Chorus until "Oh me of little faith"


Chorus 1 & 3 (after "oh me of little faith")

E|---------------|----------------|----------------|
A|--------4------|---------8------|--------6------8|
D|--4-6-8--------|--4-6-8---------|--4-6-8---------|
G|---------------|----------------|----------------|
  1 & 2 & 3 & 4 &                  1 & 2 & 3 & 4 &


Chorus 2 (after "oh me of little faith")

E|---------------|----------------|----------------|
A|--------4------|----------------|--------6-------|
D|--4-6-8--------|--4-6-8-6-------|--4-6-8---------|
G|---------------|----------------|----------------|
  1 & 2 & 3 & 4 &                  1 & 2 & 3 & 4 &

Leave unfinished (no 14) and go into the Bridge

Bridge ("Can I be used to...")

E|---------------|
A|4---4---4---4--|
D|--6---6---6---6|
G|---------------|
  1 & 2 & 3 & 4 &

Play through the bridge and straight into the following verse
            
Submit corrections


        Doubting Thomas (mando-alternative) lessons Hard to play? Try these video lessons and learn fast Doubting Thomas (mando-alternative) lessons
        
↑ Back to top | Tablatures and chords for acoustic guitar and electric guitar, ukulele, drums are parodies/interpretations of the original songs. You may use it for private study, scholarship, research or language learning purposes only