» » »

Nickel Creek - Beauty And The Mess (walkdown And Tabs

Artists:  A B C D E F G H I J K L M N O P Q R S T U V W X Y Z # 

Beauty And The Mess (walkdown And Tabs

(ver. 1) Click to play this song!
Nickel Creek
 Rating:
4/5 (4 votes)

 Beauty And The Mess (walkdown And lessons Tabs too difficult? Try these video lessons and learn fast
 
                (Solo)
solo to the brige 

e-----------------------------------------------------------------------------------------------------
b-------------------------------------3-/-0-----------------------------3--4-4--5---7----2---0-
g----------2----4----------4-/-5-------------4/2--0------------2--------------------------------
d------2-------------2-------------------------------------------------------------------------------
a--0-----------------------------------------------------0--------------------------------------
e-----------------------------------------------------------------------------------------------------



-----------------------------------------------------------------------------------------------------
-----------------------------------------------------------------------------------------------------
------------0---------------------------------------------------------------------------------------
-3-2--0-------3-2--0--------3---2---0--------------0-----------------------------------------
-------------------------3--------------3---2---------3--2--0---------------------------
-----------------------------------------------------------------------------3---2-----1----------



walkdown to  " down i go again"


down     i    go    again
----------------------------------------------------------------------------------
----------------------------------------------------------------------------------
----------------------------------------------------0-1-2-----------------------
-------------------------------------------0-1-2--------------------------------
-0--------------------------------------------------------------------------------
--------4----3------2--1-----------------------------------------------------
            
Submit corrections


        Beauty And The Mess (walkdown And lessons Hard to play? Try these video lessons and learn fast Beauty And The Mess (walkdown And lessons
        
↑ Back to top | Tablatures and chords for acoustic guitar and electric guitar, ukulele, drums are parodies/interpretations of the original songs. You may use it for private study, scholarship, research or language learning purposes only