Home » N » Nickel Creek »

Nickel Creek - Beauty And The Mess (mando) Tabs

Artists:  A B C D E F G H I J K L M N O P Q R S T U V W X Y Z # 

Beauty And The Mess (mando) Tabs

(ver. 1) Click to play this song!
Nickel Creek
 Rating:
4/5 (4 votes)
                
Intro

Part A:
E|---------------------------------10-10-10h12-|
A|-----8----10-10-10h12-----12-----------------|
D|-----------------------/7----/10-------------|
G|-/10---/9------------------------------------|

Part B:
E|----------------------------10-12-10-8---------------------|
A|-----8----10-10-10h12----12------------12-10-7-------------|
D|----------------------/7-----------------------12-10-9-7---|
G|-/10---/9------------------------------------------------12| then part A

Part C:				N.H. N.H.
E|------------------------------12>------|
A|-----8----10-10-10h12-----12-------12>-|
D|-----------------------/7---------------|
G|-/10---/9-------------------------------|

Intro is A, B, A, C

After 1st chorus:
E|-----------------------------10-12-10-8----|
A|-----8----10-10-10h12-----12------------12-|
D|-----------------------/7------------------|
G|-/10---/9----------------------------------|

During 2nd verse:
E|-----------------------------------|
A|-----------------------------------|
D|-----8--7--6-5--3------------5h6h7-|
G|-----------------------7h8h9-------|
     Down I go a-gain

During bridge, part A, then:
E|------------------------------10/12--10--8-----------------|
A|-----8----10-10-10h12-----12----------------12--10-7-------|
D|-----------------------/7----------------------------12-10-|
G|-/10---/9--------------------------------------------------| then part A

Part A again with some harmonics at the end, something like part C

On the last chorus, Chris plays this harmonic thing at the very end:
E|-7>-|
A|-7>-|
D|-7>-|
G|-7>-|

The end goes like this:
Part A, then:
E|-----------------------10-12-10-8----------------------------------|
A|-----8----10-10-10h12-------------12-10-7--------------------------|
D|------------------------------------------12-10-9-7-5-3-2--0-------|
G|-/10---/9----------------------------------------------------5-4-2-|

This tab isn't perfect or complete. 
Check the Beauty and the Mess guitar tab for the chords.
            
Submit corrections

↑ Back to top | Tablatures and chords for acoustic guitar and electric guitar, ukulele, drums are parodies/interpretations of the original songs. You may use it for private study, scholarship, research or language learning purposes only