» » »

Nickel Creek - 7 Wonders Tabs

Artists:  A B C D E F G H I J K L M N O P Q R S T U V W X Y Z # 

7 Wonders Tabs

(ver. 1) Click to play this song!
Nickel Creek
 Rating:
4/5 (4 votes)

 7 Wonders lessons Tabs too difficult? Try these video lessons and learn fast
 
                ******CAPO 3RD FRET*********

VERSE 1
G |---------------0--------------------0-------------------
D |-----------0-------------0-------0-------------0--------
Bb|-------2--------------2-------2-------------2-----------
F |---4---------------4---------------------4--------------
C |--------------------------------------------------------
G |--------------------------------------------------------

  |---------------0--------------------------0-------------
  -----------0-------------0------------0-------------0---
  |-------2--------------2-----------2--------------2------
  |---2---------------2------------------------------------
  |------------------------------2---------------2---------
  |--------------------------------------------------------

(1st ending)
  |---------------0-----------0-------0--0-----------------
  |-----------0---------------0-------0--0-----------------
  |-------2---------------2-----------2--2------1h2--------
  |---0---------------0------------------------------------
  |-------------------------------0------------------------
  |------------------------------------------4-------------


  |---------------0----------------------------------------
  |-----------0-----------------0--------------------------
  |-------2-----------------2------------------------------
  |---------------------4----------------------------------
  |--------------------------------------------------------
  |---2----------------------------------------------------
  
(2nd ending into chorus)

  |---------------0-----------0-------0--0------0--0-------
  |-----------0---------------0-------0--0------0--0-------
  |-------2---------------2-----------2--2------2--2-------
  |---0---------------0------------------------------------
  |-------------------------------0------------------------
  |------------------------------------------0-------------

CHORUS 
G |-----------0--------0-----------0-----------0-----------
D |-----------0--0--0--0-----------0-----------0-----------
Bb|-------2---------2----------2-----------2---------------
F |---0----------------------------------------------------
C |------------------------0-------------------------------
G |------------------------------------0-------------------

  |-----------0--------0-----------0-----------0-----------
  |-----------0--0--0--0-----------0-----------0-----------
  |-------2---------2----------2-----------2---------------
  |---0----------------------------------------------------
  |------------------------0-------------------------------
  |------------------------------------0-------------------

  |------------0-----------0-----------0------------0------
  |-----------(0)---------(0)---------(0)----------(0)-----
  |--------4-----------4-----------4------------4----------
  |--------4-----------4-----------4------------4----------
  |---2------------------------0---------------------------
  |----------------4------------------------2--------------

  |-----------------0--------------------------------------
  |--------------------4-----------------------------------
  |----------4------------4--------------------------------
  |-------4------------------------------------------------
  |---2----------------------------------------------------
  |--------------------------------------------------------
*listen to the song for a more accurate strum

VERSE 2
G |---0--------0--------------------0----------------------
D |---0------------------0-------0-------------0-----------
Bb|---2---------------2-------2-------------2--------------
F |---4-----4------4---------------------4-----------------
C |--------------------------------------------------------
G |--------------------------------------------------------

  |---------------0--------------------------0-------------
  |-----------0-------------0------------0-------------0---
  |-------2--------------2-----------2--------------2------
  |---2---------------2------------------------------------
  |------------------------------2---------------2---------
  |--------------------------------------------------------

  |---------------0-----------0-------0--0-----------------
  |-----------0---------------0-------0--0-----------------
  |-------2---------------2-----------2--2------1h2--------
  |---0---------------0------------------------------------
  |-------------------------------0------------------------
  |------------------------------------------4-----------


  |---------------0--------------------------0----------0--
  |-----------0-----------------0--------0---0----------0--
  |-------2-----------------2--------2---------------2-----
  |---------------------4-------------------------4--------
  |--------------------------------------------------------
  |---2----------------------------------------------------

  |---------------0---------0----------0----------0-------
  |-----------0---0---------0-------0--0----------0--------
  |-------2--------------2-------2-------------2-----------
  |---4---------------4---------------------4--------------
  |--------------------------------------------------------
  |--------------------------------------------------------

  |---------------0---------0----------------0---------0---
  |-----------0---0---------0------------0---0---------0---
  |-------2--------------2-----------2--------------2------
  |---2---------------2------------------------------------
  |------------------------------2---------------2---------
  |-------------------------------------------------------- 

  |---------------0-----------0-------0--0------0--0-------
  |-----------0---0-----------0-------0--0------0--0-------
  |-------2---------------2-----------2--2------2--2-------
  |---0---------------0------------------------------------
  |-------------------------------0------------------------
  |------------------------------------------0-------------

REPEAT CHORUS

BRIDGE
G |------------0------------------------------0------------
D |------------------------0-------------0----------0------
Bb|--------------------2--------------2----------2---------
F |-------(2)------4---------------4-----------------------
C |--------------------------------------------------------
G |---0------------------------2---------------------------
  |---------------0------------------0-----------------0---
  |------------3-----3------------3----3------------1----1-
  |---------0------------------0-----------------4---------
  |------2------------------4-----------------2------------
  |---3------------------2-----------------0---------------
  |--------------------------------------------------------

  |---------------0------------------0------2--------------
  |------------3-----3------------3-----3---3-------------
  |---------0------------------0------------0--------------
  |------4------------------2------------------------------
  |---2------------------3---------------------------------
  |--------------------------------------------------------

Play Verse1 w/ 2nd ending
Repeat Chorus 

Tag with last half of Chorus
                                              *important change
G |------------0-----------0-----------0-------(0)---------
D |-----------(0)---------(0)---------(0)------(0)---------
Bb|--------4-----------4-----------4------------4----------
F |--------4-----------4-----------4------------4----------
C |---2------------------------0---------------------------
G |----------------4------------------------2--------------

  |------------0-----------0-----------0------------0------
  |-----------(0)---------(0)---------(0)----------(0)-----
  |--------4-----------4-----------4------------4----------
  |--------4-----------4-----------4------------4----------
  |---2------------------------0---------------------------
  |----------------4--
            
Submit corrections


        7 Wonders lessons Hard to play? Try these video lessons and learn fast 7 Wonders lessons
        
↑ Back to top | Tablatures and chords for acoustic guitar and electric guitar, ukulele, drums are parodies/interpretations of the original songs. You may use it for private study, scholarship, research or language learning purposes only