Home » N » Nick Cave And The Bad Seeds »

Nick Cave And The Bad Seeds - Midnight Man Bass

Artists:  A B C D E F G H I J K L M N O P Q R S T U V W X Y Z # 

Midnight Man Bass

(ver. 1) Click to play this song!
Nick Cave And The Bad Seeds
Nick Cave & the Bad Seeds
Bass Tab


Intro

|-----------------------------------------------------|
|-----------------------------------------------------|
|-7---7----5-6-7---7----5-6-7---7----5-6-7---7----5-6-|
|--------7------------7------------7------------7-----|

Verse

|-----------------------------------------------------|
|-----------------------------------------------------|
|-7---7----5-6-7---7----5-6-7---7----5-6-7---7----5-6-|
|--------7------------7------------7------------7-----| 

|------------------------------------------------------------------|
|---------------------------5---5----5-----------------------------|
|-7---7----5-6-7---7----5-6--------5---5-7---7----5-6-7---7----5-6-|
|--------7------------7-------------------------7------------7-----| x2

|---------------------------------------------------|
|---------------------------5---5----5--------------|
|-7---7----5-6-7---7----5-6--------5---3---3----1-2-|
|--------7------------7-----------------------3-----|

|----------------------------------------|
|----------------------------------------|
|-3---3----1-2-3---3----1-2-3---3----1-2-|
|--------3------------3------------3-----|

Chorus

|---------------------------------------------------|
|--------------5---5----5-6-7---7----5--7---7----5--|
|-7---7----5-6--------7------------7-----------7----|
|--------7------------------------------------------| x2

|-----------------------------------------------------|
|--------------5---5----5-6-7---7----5-6-7---7----5-6-|
|-7---7----5-6--------7------------5------------5-----|
|--------7--------------------------------------------|

|--------------------------------------------------|
|-7---7----5-6-7---7----5-6-7---7----5-6-7---7-----|
|--------5------------5------------5------------5--|
|--------------------------------------------------|

Ending

|----------------------------------------------|    * End here last time
|-----------5------0h5-------------------------|
|-7-----3h7--------------3--3--3-7*---7----5-6-|
|----------------------------------------7-----| x6

Intro
Verse x2
Chorus
Verse x2
Chorus
Verse
Chorus
Ending
            
Submit corrections

↑ Back to top | Tablatures and chords for acoustic guitar and electric guitar, ukulele, drums are parodies/interpretations of the original songs. You may use it for private study, scholarship, research or language learning purposes only