Home » N » Nick Cave And The Bad Seeds »

Nick Cave And The Bad Seeds - Dig Lazarus Dig Bass

Artists:  A B C D E F G H I J K L M N O P Q R S T U V W X Y Z # 

Dig Lazarus Dig Bass

(ver. 1) Click to play this song!
Nick Cave And The Bad Seeds
'Dig! Lazarus! Dig!' by Nick Cave & the Bad Seeds
Tuning: Standard (EADG)
Verse: 1.0

Quite a simple tune. You can skip the slide at the the beginning of every verse riff.
I'm still not sure if its even in the song at all.
There are two different verses (which covers most of the song), but it doesn't really 
wich one you use.
You'll figure out when to use what riff.

Enjoy!

Riff 1 (intro):

G|-------|
D|-------|
A|-------|
E|-0-0-0-|

Riff 2 (verse):

G|--------------|
D|--------------|
A|----5---7-----|
E|-/5---0---0-0-|

Riff 3 (verse):

G|--------------|
D|--------------|
A|----5-6-7-----|
E|-/5-------0-0-|

Riff 4 (bridge):

G|------------------------------|
D|------------------------------|
A|----5-------------------------|
E|-/5---0-5-5-5-5-4-4-3-3-0-0-0-|

Riff 5 (chorus):

G|----------------------------------------------|
D|----------------------------------------------|
A|----5-0-3-3-3-3-3-3-3-3---------5-5-5-5-------|
E|-/5---------------------3-3-3-3---------0-0-0-|
            
Submit corrections

↑ Back to top | Tablatures and chords for acoustic guitar and electric guitar, ukulele, drums are parodies/interpretations of the original songs. You may use it for private study, scholarship, research or language learning purposes only