» » »

Ne-Yo - Closer Tabs

Artists:  A B C D E F G H I J K L M N O P Q R S T U V W X Y Z # 

Closer Tabs

(ver. 2) Click to play this song!
Ne-Yo
 Rating:
3.3/5 (12 votes)

 Closer lessons Tabs too difficult? Try these video lessons and learn fast
 
                Neyo - Closer


video of me playing/singing it:

Tuning: D# A# D# G# A# D#

x = mute
/ = slide

Verse 1: (play 3x)
---------0------------0-------------0------------0-|
-------0------------0-------------0------------0---|
-----6------------6--------------------------------|
---5------------5-------------11-----------11------|
-----------------------------9------------9--------|
-5------------5------------9------------9----------|

Chorus 1:
-0----0-0-0-0---0---0----0-0-0-0---0-|
-0----0-0-0-0---0---0----0-0-0-0---0-|
-4----4-4-4-4---6---7----9-9-7-7---6-|
-0----0-0-0-0---0---0----0-0-0-0---0-|
-x----x-x-x-x---x---x----x-x-x-x---x-|
-5----5-5-5-5---7---9----9-9-9-9---7-|

Verse 2: (play 2x)
---------0-----0-----0------------0-----0-----0---|
-------0-----0-----0------------0-----0-----0---0-|
-----6-----6-----6-----6------6-----6-----6-------|
---5------------------------5---------------------|
--------------------------------------------------|
-5------------------------5-----------------------|

----------0------0------0--------------0------0------0---|
--------0------0------0--------------0------0------0---0-|
---------------------------------------------------------|
-----11-----11-----11-----11------11-----11-----11-------|
---9----------------------------9------------------------|
-9----------------------------9--------------------------|

Chorus 2: (slight palm mute)
-----------------------------------------------|
-----------------------------------------------|
-4-4-6-4-4-6-4-4-6-4---4-4-6-4-4-6-4-4-6-4---6-|
-0-0-0-0-0-0-0-0-0-0---0-0-0-0-0-0-0-0-0-0---0-|
-x-x-x-x-x-x-x-x-x-x---x-x-x-x-x-x-x-x-x-x---x-|
-5-5-5-5-5-5-5-5-5-5---5-5-5-5-5-5-5-5-5-5---7-|

---------------------------------------|
---------------------------------------|
-7-7-9-7-7-9-7-7-9-7---7-7-9-7-7-9-7-7-|
-0-0-0-0-0-0-0-0-0-0---0-0-0-0-0-0-0-0-|
-x-x-x-x-x-x-x-x-x-x---x-x-x-x-x-x-x-x-|
-9-9-9-9-9-9-9-9-9-9---9-9-9-9-9-9-9-9-|

Solo/Bridge:
-x-x-x-x-x-x----------------------------|
-x-x-x-x-x-x----------------------------|
-x-x-x-x-x-x----------------------6/7-6-|
-7-7-7-7-7-7-7-7-7-0--0-0-0-7-7-0-x---x-|
-x-x-x-x-x-x-5-5-5-0--0-0-0-5-5-0-4/5-4-|
-x-x-x-x-x-x-5-5-5-0--0-0-0-5-5-0-------|

----------------------------|
----------------------------|
----------------------7/9-7-|
-7-7-7-0--0-0-0-7-7-0-x---x-|
-5-5-5-0--0-0-0-5-5-0-5/7-5-|
-5-5-5-0--0-0-0-5-5-0-------|

------------------------------------|
------------------------------------|
---------------------------11/12-11-|
-11-11-11-0--0-0-0-11-11-0--x----x--|
-9--9--9--0--0-0-0-9--9--0--9/10-9--|
-9--9--9--0--0-0-0-9--9--0----------|

-----------------------------------|
-----------------------------------|
---------------------------11/9-9\-|
-11-11-11-0--0-0-0-11-11-0--x---x--|
-9--9--9--0--0-0-0-9--9--0--9/7-7\-|
-9--9--9--0--0-0-0-9--9--0---------|

-----------------------------------------------|
-----------------------------------------------|
-4-4-6-4-4-6-4-4-6-4---4-4-6-4-4-6-4-4-6-4---6-|
-0-0-0-0-0-0-0-0-0-0---0-0-0-0-0-0-0-0-0-0---0-| (palm mute)
-x-x-x-x-x-x-x-x-x-x---x-x-x-x-x-x-x-x-x-x---x-|
-5-5-5-5-5-5-5-5-5-5---5-5-5-5-5-5-5-5-5-5---7-|

-0-0-0-0-0-0-0-0-0-0---0-0-0-0-0-0-0-0-0-0---0-|
-0-0-0-0-0-0-0-0-0-0---0-0-0-0-0-0-0-0-0-0---0-|
-7-7-9-7-7-9-7-7-9-7---7-7-9-7-7-9-7-7-9-7---6-|
-0-0-0-0-0-0-0-0-0-0---0-0-0-0-0-0-0-0-0-0---0-| (crescendo)
-x-x-x-x-x-x-x-x-x-x---x-x-x-x-x-x-x-x-x-x---x-|
-9-9-9-9-9-9-9-9-9-9---9-9-9-9-9-9-9-9-9-9---7-|

Chorus 3:
-0-0--------0-0-0-0-|
-0-0--------0-0-0-0-|
-4-4--------4-4-4-4-|
-0-0--------0-0-0-0-|
-x-x--------x-x-x-x-|
-5-5--------5-5-5-5-|

-0-0-0-0-0-0-0-0-0-0---0-0-0-0-0-0-0-0-0-0---0-|
-0-0-0-0-0-0-0-0-0-0---0-0-0-0-0-0-0-0-0-0---0-|
-7-7-9-7-7-9-7-7-9-7---7-7-9-7-7-9-7-7-9-7---6-|
-0-0-0-0-0-0-0-0-0-0---0-0-0-0-0-0-0-0-0-0---0-|
-x-x-x-x-x-x-x-x-x-x---x-x-x-x-x-x-x-x-x-x---x-|
-9-9-9-9-9-9-9-9-9-9---9-9-9-9-9-9-9-9-9-9---7-|

-----------------------------------------------|
-----------------------------------------------|
-4-4-6-4-4-6-4-4-6-4---4-4-6-4-4-6-4-4-6-4---6-|
-0-0-0-0-0-0-0-0-0-0---0-0-0-0-0-0-0-0-0-0---0-|
-x-x-x-x-x-x-x-x-x-x---x-x-x-x-x-x-x-x-x-x---x-|
-5-5-5-5-5-5-5-5-5-5---5-5-5-5-5-5-5-5-5-5---7-|

-0-0-0-0-0-0-0-0-0-0---0-0-0-0-0-0-0-0-0-0---0-|
-0-0-0-0-0-0-0-0-0-0---0-0-0-0-0-0-0-0-0-0---0-|
-7-7-9-7-7-9-7-7-9-7---7-7-9-7-7-9-7-7-9-7---6-|
-0-0-0-0-0-0-0-0-0-0---0-0-0-0-0-0-0-0-0-0---0-|
-x-x-x-x-x-x-x-x-x-x---x-x-x-x-x-x-x-x-x-x---x-|
-9-9-9-9-9-9-9-9-9-9---9-9-9-9-9-9-9-9-9-9---7-|

-0-
-0-
-4-
-0-
-x-
-5-
            
Submit corrections


        Closer lessons Hard to play? Try these video lessons and learn fast Closer lessons
        
↑ Back to top | Tablatures and chords for acoustic guitar and electric guitar, ukulele, drums are parodies/interpretations of the original songs. You may use it for private study, scholarship, research or language learning purposes only