» » »

New York Dolls - Trash Bass

Artists:  A B C D E F G H I J K L M N O P Q R S T U V W X Y Z # 

Trash Bass

(ver. 2) Click to play this song!
New York Dolls
 Rating:
4/5 (4 votes)

 Trash lessons Tabs too difficult? Try these video lessons and learn fast
 
                Trash
New York Dolls
Bass Tab


Note: This is the ska/reggae version from the "Cause I Sez So" album.

Intro [00:09]

|--------------------------------------------------------|
|----------------22-----4-7-----------------22------4-7--|
|-----2-5------3---3--5----------2-5------3---3/5-5------|
|-3-3------------------------3-3-------------------------|

|------------------------------|
|----------5--------22-----4-7-|
|-----2-5----5\---3---3--5-----|
|-3-3--------------------------|

Part A [00:23]

|----------------------------------------------------|
|----------------22-----4-7----------------22-----4--|
|-----2-5------3---3--5---------2-5------3---3--5----|
|-3-3-----------------------3-3----------------------|

|-------------------------------------------------|
|----------------2------4-7-----2-5--------2-5----|
|-----2-5------3---3--5-----3-3----------3--------|
|-3-3---------------------------------------------|

Part B [00:41]

|--------------------------------------------------------|
|----447--7-4-7--7-4-7----------44---7-4-7--7-4-7--------|
|-5--------------------5--5--5----5---------------5--5---|
|--------------------------------------------------------|

Part A [00:50]

|-----------------------------------------------------|
|----------------2------4-7----------------22-----4-7-|
|-----2-5------3---3--5---------2-5------3---3--5-----|
|-3-3-----------------------3-3-----------------------|

|------------------------------------------------|
|----------------2------4------2-5--------2-5----|
|-----2-5------3---3--5----3-3----------3--------|
|-3-3--------------------------------------------|

Part B [01:08]

|------------------------------------------------------|
|----4-7----44-----------------44----------------------|
|-5-------5---5--5-----5--5--5---5--5------5-----5--5--|
|------------------2-5----------------2-5----2-5-------|

Part A [01:17]

|----------------------------------------------------------|
|----------5-------22-----4-7----------5-------2-------4-7-|
|-----2-5----5---3---3--5---------2-5----5---3---3-5-5-----|
|-3-3-------------------------3-3--------------------------|

|-------------------------------------------------|
|----------------22-----4-7-----2-5--------2-5----|
|-----2-5------3---3--5-----3-3----------3--------|
|-3-3---------------------------------------------|

Part B [01:35]

|--------------------------------------------------------|
|----447--7-4-7--7-4-7----------44---7-4-7--7-4-7--------|
|-5--------------------5--5--5----5---------------5--5---|
|--------------------------------------------------------|

|----------------------------------------------------|
|----447--7-4-7--7-4-7----------44---7-4-7-----------|
|-5--------------------5--5--5----5--------5--5--5~--|
|----------------------------------------------------|


"Baby, how d'you call your lover boy?"


Ending [02:03]

|--------------------------------------------------------|
|----------------22-----4-7----------5-------22-----4-7--|
|-----2-5------3---3--5---------2-5----5---3---3--5------|
|-3-3-----------------------3-3--------------------------|

|----------------------------------------------------------|
|----------5-------2-------4-7----------------22------4-7--|
|-----2-5----5---3---3/5-5---------2-5------3---3/5-5------|
|-3-3--------------------------3-3-------------------------|

|-------------------------------------------------------------|
|-------------------2------4-7-------------------2-------4-7--|
|-----2-5----2-5--3---3--5---------2-5----2-5--3---3/5-5------|
|-3-3------3-------------------3-3------3---------------------|

|--------------------------------------------------------------|
|-------------------2-------4-7-------------------2-------4-7--|
|-----2-5----2-5--3---3/5-5---------2-5----2-5--3---3/5-5------|
|-3-3------3--------------------3-3------3---------------------|

|-----------------------------------------------------------|
|----------5---5----2------4-7---------5---5----22-----4-7--|
|-----2-5----5----3---3--5--------2-5----5----3---3--5------|
|-3-3---------------------------3---------------------------|

|---------------------------------------------------------|
|--------5---5----2-------4-7----------------22------4-7--|
|---2-5----5----3---3/5-5---------2-5------3---3/5-5------|
|-3---------------------------3-3-------------------------|

|----------------------------------------------------------|
|----------5---5----2-------4-7---------------2-------4-7--|
|-----2-5----5----3---3/5-5--------2-5------3---3/5-5------|
|-3-3----------------------------3-------------------------|

|-------------------------------------------------------|
|----------------2-------4-7-/5--5--5\-------22------4--|
|-----2-5------3---3/5-5-------------------3---3/5-5----|
|-3-3---------------------------------------------------|

|----------------------------------------------------------|
|----------5---5----2-------4-7---------------2-------4-7--|
|-----2-5----5----3---3/5-5--------2-5------3---3/5-5------|
|-3-3----------------------------3-------------------------|

|--------------------------------------------------------|
|----------------22------4-7----------------22------4-7--|
|-----2-5------3---3/5-5---------2-5------3---3/5-5------|
|-3-3------------------------3-3-------------------------|

|------------------------------------------------------------|
|-----------------22------4-7----------5-------2-------------|
|------2-5------3---3/5-5---------2-5----5---3---3-5--5------|
|-33-3------------------------3-3------------------------3~--|
            
Submit corrections


        Trash lessons Hard to play? Try these video lessons and learn fast Trash lessons
        
↑ Back to top | Tablatures and chords for acoustic guitar and electric guitar, ukulele, drums are parodies/interpretations of the original songs. You may use it for private study, scholarship, research or language learning purposes only