Home » N » New York Dolls »

New York Dolls - Personality Crisis Bass

Artists:  A B C D E F G H I J K L M N O P Q R S T U V W X Y Z # 

Personality Crisis Bass

(ver. 2) Click to play this song!
New York Dolls
Gtr I (E A D G) - 'Arthur "Killer" Kane - Bass'


 Intro
  Q=154
 4/4
  Gtr I
  W          W          W          W          W
|----------|----------|----------|----------|------|
|----------|----------|----------|----------|------|
|----------|----------|----------|----------|------|
|----------|----------|----------|----------|------|


  E E Q  E E Q    E E Q  E E Q    E E Q  Q  Q    E E Q  Q  Q
|---------------|---------------|--------------|--------------|
|-----2--5-5-5--|-----4--7-7-7--|-5-5-4--------|-5-5-4--------|
|-3-3-----------|-5-5-----------|--------7--5--|--------7--5--|
|---------------|---------------|--------------|--------------|


  E E Q  E E Q    E E Q  E E Q    E E Q  Q  Q    E E Q  Q  Q
|---------------|---------------|--------------|--------------|
|-----2--5-5-5--|-----4--7-7-7--|-5-5-4--------|-5-5-4--------|
|-3-3-----------|-5-5-----------|--------7--5--|--------7--5--|
|---------------|---------------|--------------|--------------|


  E E Q  E E Q    E E Q  E E Q    E E E E E E E E   E E E E E E E E
|---------------|---------------|-----------------|-----------------||
|-----2--5-5-5--|-----4--7-7-7--|-5-5-5-0-5-5-5-0-|-5-5-5-0-5-5-5-0-||
|-3-3-----------|-5-5-----------|-----------------|-----------------||
|---------------|---------------|-----------------|-----------------||


 1st Verse
  E E E E E E E E   E E E E E E E E   E E E E E E E E   E E E E E E E E
|-----------------|-----------------|-----------------|-----------------|
|-5-5-5-0-5-5-5-0-|-5-5-5-0-5-5-5-0-|-5-5-5-0-5-5-5-0-|-5-5-5-0-5-5-5-0-|
|-----------------|-----------------|-----------------|-----------------|
|-----------------|-----------------|-----------------|-----------------|


  Q  Q  Q  Q    Q  Q  Q  Q    E E Q  Q  Q    E E Q  Q  Q
|-------------|-------------|--------------|--------------||
|-------------|-------------|-5-5-4--------|-5-5-4--------||
|-3--3--3--3--|-5--5--5--5--|--------7--5--|--------7--5--||
|-------------|-------------|--------------|--------------||


 Chorus
  $
  E E Q  E E Q    E E Q  E E Q    E E Q  Q  Q    E E Q  Q  Q
|---------------|---------------|--------------|--------------|
|-----2--5-5-5--|-----4--7-7-7--|-5-5-4--------|-5-5-4--------|
|-3-3-----------|-5-5-----------|--------7--5--|--------7--5--|
|---------------|---------------|--------------|--------------|


  E E Q  E E Q    E E Q  E E Q    E E Q  Q  Q    E E Q  Q  Q
|---------------|---------------|--------------|--------------|
|-----2--5-5-5--|-----4--7-7-7--|-5-5-4--------|-5-5-4--------|
|-3-3-----------|-5-5-----------|--------7--5--|--------7--5--|
|---------------|---------------|--------------|--------------|


  E E Q  E E Q    E E Q  E E Q    E E Q  Q  Q    E E Q  Q  Q
|---------------|---------------|--------------|--------------|
|-----2--5-5-5--|-----4--7-7-7--|-5-5-4--------|-5-5-4--------|
|-3-3-----------|-5-5-----------|--------7--5--|--------7--5--|
|---------------|---------------|--------------|--------------|


  E E Q  E E Q    E E Q  E E Q    E E Q  Q  Q    E E Q  Q  Q
|---------------|---------------|--------------|--------------||
|-----2--5-5-5--|-----4--7-7-7--|-5-5-4--------|-5-5-4--------||
|-3-3-----------|-5-5-----------|--------7--5--|--------7--5--||
|---------------|---------------|--------------|--------------||


 2nd & 4th Verses
  E E E E E E E E   E E E E E E E E   E E E E E E E E   E E E E E E E E
|-----------------|-----------------|-----------------|-----------------|
|-5-5-5-0-5-5-5-0-|-5-5-5-0-5-5-5-0-|-5-5-5-0-5-5-5-0-|-5-5-5-0-5-5-5-0-|
|-----------------|-----------------|-----------------|-----------------|
|-----------------|-----------------|-----------------|-----------------|


  Q  Q  Q  Q    Q  Q  Q  Q    E E Q  Q  Q    E E Q  Q  Q
|-------------|-------------|--------------|--------------|
|-------------|-------------|-5-5-4--------|-5-5-4--------|
|-3--3--3--3--|-5--5--5--5--|--------7--5--|--------7--5--|
|-------------|-------------|--------------|--------------|


  E E E E E E E E   E E E E E E E E   E E E E E E E E   E E E E E E E E
|-----------------|-----------------|-----------------|-----------------|
|-5-5-5-0-5-5-5-0-|-5-5-5-0-5-5-5-0-|-5-5-5-0-5-5-5-0-|-5-5-5-0-5-5-5-0-|
|-----------------|-----------------|-----------------|-----------------|
|-----------------|-----------------|-----------------|-----------------|


                                   To Coda
  Q  Q  Q  Q    Q  Q  Q  Q    E E Q  Q  Q    E E Q  Q  Q
|-------------|-------------|--------------|--------------||
|-------------|-------------|-5-5-4--------|-5-5-4--------||
|-3--3--3--3--|-5--5--5--5--|--------7--5--|--------7--5--||
|-------------|-------------|--------------|--------------||


 Chorus
  E E Q  E E Q    E E Q  E E Q    E E Q  Q  Q    E E Q  Q  Q
|---------------|---------------|--------------|--------------|
|-----2--5-5-5--|-----4--7-7-7--|-5-5-4--------|-5-5-4--------|
|-3-3-----------|-5-5-----------|--------7--5--|--------7--5--|
|---------------|---------------|--------------|--------------|


  E E Q  E E Q    E E Q  E E Q    E E Q  Q  Q    E E Q  Q  Q
|---------------|---------------|--------------|--------------|
|-----2--5-5-5--|-----4--7-7-7--|-5-5-4--------|-5-5-4--------|
|-3-3-----------|-5-5-----------|--------7--5--|--------7--5--|
|---------------|---------------|--------------|--------------|


  E E Q  E E Q    E E Q  E E Q    E E Q  Q  Q    E E Q  Q  Q
|---------------|---------------|--------------|--------------|
|-----2--5-5-5--|-----4--7-7-7--|-5-5-4--------|-5-5-4--------|
|-3-3-----------|-5-5-----------|--------7--5--|--------7--5--|
|---------------|---------------|--------------|--------------|


  E E Q  E E Q    E E Q  E E Q    E E Q  Q  Q    E E Q  Q  Q
|---------------|---------------|--------------|--------------|
|-----2--5-5-5--|-----4--7-7-7--|-5-5-4--------|-5-5-4--------|
|-3-3-----------|-5-5-----------|--------7--5--|--------7--5--|
|---------------|---------------|--------------|--------------|


  E E Q  E E Q    E E Q  E E Q    W          W
|---------------|---------------|----------|------||
|-----2--5-5-5--|-----4--7-7-7--|-5--------|------||
|-3-3-----------|-5-5-----------|----------|------||
|---------------|---------------|----------|------||


 3rd Verse
  E E E E E E E E   E E E E E E E E   E E E E E E E E   E E E E E E E E
|-----------------|-----------------|-----------------|-----------------|
|-5-5-5-0-5-5-5-0-|-5-5-5-0-5-5-5-0-|-5-5-5-0-5-5-5-0-|-5-5-5-0-5-5-5-0-|
|-----------------|-----------------|-----------------|-----------------|
|-----------------|-----------------|-----------------|-----------------|


                                             D.S. al Coda
  Q  Q  Q  Q    Q  Q  Q  Q    E E Q  Q  Q    E E Q  Q  Q
|-------------|-------------|--------------|--------------||
|-------------|-------------|-5-5-4--------|-5-5-4--------||
|-3--3--3--3--|-5--5--5--5--|--------7--5--|--------7--5--||
|-------------|-------------|--------------|--------------||


  &
  E E Q  Q  Q    Q  Q  Q  Q    Q  Q  Q  Q    E E Q  Q  Q    E E Q  Q  Q
|--------------|-------------|-------------|--------------|--------------||
|-5-5-4--------|-------------|-------------|-5-5-4--------|-5-5-4--------||
|--------7--5--|-3--3--3--3--|-5--5--5--5--|--------7--5--|--------7--5--||
|--------------|-------------|-------------|--------------|--------------||


 Out-Chorus
  E E Q  E E Q    E E Q  E E Q    E E Q  Q  Q    E E Q  Q  Q
|---------------|---------------|--------------|--------------|
|-----2--5-5-5--|-----4--7-7-7--|-5-5-4--------|-5-5-4--------|
|-3-3-----------|-5-5-----------|--------7--5--|--------7--5--|
|---------------|---------------|--------------|--------------|


  E E Q  E E Q    E E Q  E E Q    E E Q  Q  Q    E E Q  Q  Q
|---------------|---------------|--------------|--------------|
|-----2--5-5-5--|-----4--7-7-7--|-5-5-4--------|-5-5-4--------|
|-3-3-----------|-5-5-----------|--------7--5--|--------7--5--|
|---------------|---------------|--------------|--------------|


  E E Q  E E Q    E E Q  E E Q    E E Q  Q  Q    E E Q  Q  Q
|---------------|---------------|--------------|--------------|
|-----2--5-5-5--|-----4--7-7-7--|-5-5-4--------|-5-5-4--------|
|-3-3-----------|-5-5-----------|--------7--5--|--------7--5--|
|---------------|---------------|--------------|--------------|


  E E Q  E E Q    E E Q  E E Q    E E Q  Q  Q    E E Q  Q  Q
|---------------|---------------|--------------|--------------|
|-----2--5-5-5--|-----4--7-7-7--|-5-5-4--------|-5-5-4--------|
|-3-3-----------|-5-5-----------|--------7--5--|--------7--5--|
|---------------|---------------|--------------|--------------|


                H.=H
  E E Q  E E Q    E E Q  E E Q    W          q  Q
|---------------|---------------|----------|-------*|
|-----2--5-5-5--|-----4--7-7-7--|-5--------|-5-----*|
|-3-3-----------|-5-5-----------|----------|-------*|
|---------------|---------------|----------|-------*|

            
Submit corrections

↑ Back to top | Tablatures and chords for acoustic guitar and electric guitar, ukulele, drums are parodies/interpretations of the original songs. You may use it for private study, scholarship, research or language learning purposes only