» » »

New Radicals - Crying Like A Church On Monday Tabs

Artists:  A B C D E F G H I J K L M N O P Q R S T U V W X Y Z # 

Crying Like A Church On Monday Tabs

(ver. 1) Click to play this song!
New Radicals
 Rating:
3.8/5 (21 vote)

 Crying Like A Church On Monday lessons Tabs too difficult? Try these video lessons and learn fast
 
                1st Solo - (Begins at 3:12)

e|----------------------------------------------------|
A|----------------------------------------------------|
D|-3-s-12-----12s13s12--8-----3s8---12s13s12----------|
G|----------------------------------------------------|
B|----------------------------------------------------|
E|----------------------------------------------------|

e|----------------------------------------11----------|
A|----------------------------------11s13-------------|
D|-8-7b-8(slight bends)-------------------------------|
G|----------------------------------------------------|
B|----------------------------------------------------|
E|----------------------------------------------------|

e|------11--11-------11--11--------11--13-------------|
A|-11s13--13----11s13--13-----11s13--13-13hold--------|  (For this hold, slide down
D|----------------------------------------------------|   & fade out at around 6th fret
G|----------------------------------------------------|   A string)
B|----------------------------------------------------|
E|----------------------------------------------------|

e|-----------------------------11---------------------|
A|-9s8s9s8s9s8-------------8s11-------11s16-----------|
D|------------8-----3s8-------------------------------|
G|----------------------------------------------------|
B|----------------------------------------------------|
E|----------------------------------------------------|

______________________________________________________

End solo - (Begins at 4:17)

e|----------------------------------------------------|
A|----------------------------------------------------|
D|--(8)10-8--------------8h10-8-----------------------|
G|----------10------8s10----------10s8s10-------------|
B|----------------------------------------------------|
E|----------------------------------------------------|

e|----------------------------------------------------|
A|------11--11--11--11h13p11--11----------------------|
D|-8s12---12--12--12--------12------12s8-8------------|
G|----------------------------------------------------|
B|----------------------------------------------------|
E|----------------------------------------------------|

e|----------------------------------------------------|
A|-----------------------------------------11--13-11--|
D|-----8--8-------8--8------8--10-----10s12--12-------|
G|-8s10-10----8s10-10---8s10-10--10-------------------|
B|----------------------------------------------------|
E|----------------------------------------------------|

e|----------------------------------------------------|
A|-13fullbend----11-----------------------------------|
D|--------------------8h10-8-(8)----------------------|
G|----------------------------------------------------|
B|----------------------------------------------------|
E|----------------------------------------------------|

e|----------------------------------------------------|
A|------------------------------8-----8--8--8-8-------|
D|------------------------------8-----8--8--8-8-------|
G|------------------------------8-----8--8--8-8-------|
B|------------------------------8-----8--8--8-8-------|
E|----------------------------------------------------|

e|------------------11--------------------------------|
A|------------13-13---13-11-9-------------9-9-9-9----8|
D|---8------------------------------------8-8-8-8----8|
G|-8s10--8--------------------------------8-8-8-8----8|
B|----------------------------------------------------|
E|----------------------------------------------------|            
Submit corrections


        Crying Like A Church On Monday lessons Hard to play? Try these video lessons and learn fast Crying Like A Church On Monday lessons
        
↑ Back to top | Tablatures and chords for acoustic guitar and electric guitar, ukulele, drums are parodies/interpretations of the original songs. You may use it for private study, scholarship, research or language learning purposes only