» » »

New Politics - Loyalties Among Theives Tabs

Artists:  A B C D E F G H I J K L M N O P Q R S T U V W X Y Z # 

Loyalties Among Theives Tabs

(ver. 1) Click to play this song!
New Politics
 Rating:
3.8/5 (21 vote)

 Loyalties Among Theives  lessons Tabs too difficult? Try these video lessons and learn fast
 
                Intro 
(Oh woah woah)
e|---------------------------------------------------------------------------|
B|---------------------------------------------------------------------------|
G|---------------------------------------------------------------------------|
D|-99-7-999-99-7-555-2222-2-2-44444444---------------------------------------|
A|-99-7-999-99-7-555-2222-0-0-44444444---------------------------------------|
E|-77-5-777-77-5-333-0000-0-0-22222222---------------------------------------|(x3)

What was that music in the back seat of your mom's car?
The soundtrack of revolution when it just starts
You tried to stop me right before we took it too far
Breaking your own heart, breaking your
e|---------------------------------------------------------------------------|
B|---------------------------------------------------------------------------|
G|---------------------------------------------------------------------------|
D|-99-7-999-99-7-555-5555-5-5-22222222---------------------------------------|
A|-99-7-999-99-7-555-5555-5-5-22222222---------------------------------------|
E|-77-5-777-77-5-333-5555-5-5-00000000---------------------------------------|(x2)

And we came for the love
But we left with the money
I hate, I hate
I hate the way you love me
e|---------------------------------------------------------------------------|
B|---------------------------------------------------------------------------|
G|---------------------------------------------------------------------------|
D|-99-7-999-99-7-555-2222-2-2-44444444---------------------------------------|
A|-99-7-999-99-7-555-2222-0-0-44444444---------------------------------------|
E|-77-5-777-77-5-333-0000-0-0-22222222---------------------------------------|(x2)

We are the young heart attacks, full of I'm never ever gonna come back
And there's no loyalties among thieves
Except for you and me
e|---------------------------------------------------------------------------|
B|---------------------------------------------------------------------------|
G|---------------------------------------------------------------------------|
D|-77777777-22222222-4444444444444444----------------------------------------|
A|-77777777-22222222-4444444444444444----------------------------------------|
E|-55555555-00000000-2222222222222222----------------------------------------|(x2) 

Break break, breaking your own damn heart
Break break, breaking your own damn heart
e|---------------------------------------------------------------------------|
B|---------------------------------------------------------------------------|
G|---------------------------------------------------------------------------|
D|-99-7-999-99-7-555-5555-5-5-22222222---------------------------------------|
A|-99-7-999-99-7-555-5555-5-5-22222222---------------------------------------|
E|-77-5-777-77-5-333-5555-5-5-00000000---------------------------------------|

A tattoo of an old stiletto on your left arm
I'll write a song about it on the guitar
They'll take our picture when we're running from the law
Breaking your own heart, breaking your
e|---------------------------------------------------------------------------|
B|---------------------------------------------------------------------------|
G|---------------------------------------------------------------------------|
D|-99-7-999-99-7-555-5555-5-5-22222222---------------------------------------|
A|-99-7-999-99-7-555-5555-5-5-22222222---------------------------------------|
E|-77-5-777-77-5-333-5555-5-5-00000000---------------------------------------|(x2)

And we came for the love
But we left with the money
I hate, I hate
I hate the way you love me
e|---------------------------------------------------------------------------|
B|---------------------------------------------------------------------------|
G|---------------------------------------------------------------------------|
D|-99-7-999-99-7-555-2222-2-2-44444444---------------------------------------|
A|-99-7-999-99-7-555-2222-0-0-44444444---------------------------------------|
E|-77-5-777-77-5-333-0000-0-0-22222222---------------------------------------|(x2)

We are the young heart attacks, full of I'm never ever gonna come back
And there's no loyalties among thieves
Except for you and me
e|---------------------------------------------------------------------------|
B|---------------------------------------------------------------------------|
G|---------------------------------------------------------------------------|
D|-77777777-22222222-4444444444444444----------------------------------------|
A|-77777777-22222222-4444444444444444----------------------------------------|
E|-55555555-00000000-2222222222222222----------------------------------------|(x2) 

The story started as a monolog
But it got better when you came along
Just us, just us, just
Bonnie and Clyde have come alive again
But we all know just how the story ends
We know, we know, we know 
e|--------------------------------------------------------------------------------|
B|--------------------------------------------------------------------------------|
G|--------------------------------------------------------------------------------|
D|--------------------------------------------------------------------------------|
A|-999-999-999-999-777-777-777-777-141414-141414-141414-141414-666-666-444-444----|
E|-777-777-777-777-555-555-555-555-121212-121212-121212-121212-444-444-222-222----|(x2)

And we came for the love
But we left with the money
I hate, I hate
I hate the way you love me
e|---------------------------------------------------------------------------|
B|---------------------------------------------------------------------------|
G|---------------------------------------------------------------------------|
D|-99-7-999-99-7-555-2222-2-2-44444444---------------------------------------|
A|-99-7-999-99-7-555-2222-0-0-44444444---------------------------------------|
E|-77-5-777-77-5-333-0000-0-0-22222222---------------------------------------|(x2)

We are the young heart attacks, full of I'm never ever gonna come back
And there's no loyalties among thieves
Except for you and me
e|---------------------------------------------------------------------------|
B|---------------------------------------------------------------------------|
G|---------------------------------------------------------------------------|
D|-77777777-22222222-4444444444444444----------------------------------------|
A|-77777777-22222222-4444444444444444----------------------------------------|
E|-55555555-00000000-2222222222222222----------------------------------------|(x4) 

Break break, breaking your own damn heart
Break break, breaking your own damn heart
e|---------------------------------------------------------------------------|
B|---------------------------------------------------------------------------|
G|---------------------------------------------------------------------------|
D|-99-7-999-99-7-555-5555-5-5-2----------------------------------------------|
A|-99-7-999-99-7-555-5555-5-5-2----------------------------------------------|
E|-77-5-777-77-5-333-5555-5-5-0----------------------------------------------|            
Submit corrections


        Loyalties Among Theives  lessons Hard to play? Try these video lessons and learn fast Loyalties Among Theives  lessons
        
↑ Back to top | Tablatures and chords for acoustic guitar and electric guitar, ukulele, drums are parodies/interpretations of the original songs. You may use it for private study, scholarship, research or language learning purposes only