Home » N » New Politics »

New Politics - Loyalties Among Theives Bass

Artists:  A B C D E F G H I J K L M N O P Q R S T U V W X Y Z # 

Loyalties Among Theives Bass

(ver. 1) Click to play this song!
New Politics
Verse 1/Pre-chorus
G|---------------------------------------------------------------------------|
D|---------------------------------------------------------------------------|
A|---------------------------------------------------------------------------|
E|-99-7-999-99-7-555-00000000-222222222--------------------------------------|

Chorus
G|---------------------------------------------------------------------------|
D|---------------------------------------------------------------------------|
A|---------------------------------------------------------------------------|
E|-55555555-00000000-22222222222222222222------------------------------------|

Verse 2
G|---------------------------------------------------------------------------|
D|-----------------------7-99------------------------------------------------|
A|----------6-77--7-99-9--------------6-77-7-9\------------------------------|
E|-99--7-99-------------------99-7-99----------------------------------------|
            
Submit corrections

↑ Back to top | Tablatures and chords for acoustic guitar and electric guitar, ukulele, drums are parodies/interpretations of the original songs. You may use it for private study, scholarship, research or language learning purposes only