Home » N » New Politics »

New Politics - Dignity Bass

Artists:  A B C D E F G H I J K L M N O P Q R S T U V W X Y Z # 

Dignity Bass

(ver. 2) Click to play this song!
New Politics
-------------------------------------------------------------------------------
			     Dignity - New Politics
-------------------------------------------------------------------------------


Tuning: Standard

This is how I play the song, I am sure it is correct but I add my own twist in a 
few places (the ends of the choruses and the outro).
It's easy to figure out the order of the song, but here it is just in case:

Intro
Chorus
Verse
Chorus
Verse
Bridge "acoustic guitar" chorus
chorus
Outro


"Guitar" intro:

G|----4-------8---------13--------9---|
D|2-2-2-2-6-6-6-6-11-11-11-11-7-7-7-7-|
A|------------------------------------|
E|------------------------------------|

Choruses:

G|--------------------6-----------|
D|----2-------6---------------7---|
A|----------------4-4---4---------|
E|0-0---0-4-4---4---------5-5---5-|

I finish each chorus with one of these. I think Poul played it the first way in each chorus.

1st chorus ending:

G|--------------------------------|
D|----2-------6-------------------|
A|----------------4---6---7---9---|
E|0-0---0-4-4---4-----------------|

2nd chorus ending:

G|--------------------------------|
D|----2-------6-------------------|
A|----------------4-4-6-6-7-7-9-9-|
E|0-0---0-4-4---4-----------------|

3 3rd chorus ending:

G|------------------6---8---9---11|
D|----2-------6-------------------|
A|----------------4---6---7---9---|
E|0-0---0-4-4---4-----------------|

Verses:

G|--------------------------------|
D|--------------------------------|
A|----------------4-4---4---------|
E|0-0---0-4-4---4---------5-5---5-|

Bridge ("acoustic guitar" chorus) same as intro:


G|----4-------8---------13--------9---|
D|2-2-2-2-6-6-6-6-11-11-11-11-7-7-7-7-|
A|------------------------------------|
E|------------------------------------|

Outro:


G|----------------------------------------|
D|----------------------------------------|
A|----------------4-4-4-4---------7-------|
E|0-0-0-0-4-4-4-4---------5-5-5-5-0-------|

-OR-

G|----------------------------------------|
D|----------------------------------------|
A|7-7-7-7---------4-4-4-4---------7-------|
E|--------4-4-4-4---------5-5-5-5-0-------|

Let the last E ring. Enjoy!


| /  slide up
| \  slide down
| h  hammer-on
| p  pull-off
| ~  vibrato
| +  harmonic
| x  Mute note
===============================================================================
            
Submit corrections

↑ Back to top | Tablatures and chords for acoustic guitar and electric guitar, ukulele, drums are parodies/interpretations of the original songs. You may use it for private study, scholarship, research or language learning purposes only