» » »

New Order - The Village Tabs

Artists:  A B C D E F G H I J K L M N O P Q R S T U V W X Y Z # 

The Village Tabs

(ver. 1) Click to play this song!
New Order
 Rating:
4.4/5 (5 votes)

 The Village  lessons Tabs too difficult? Try these video lessons and learn fast
 
                [Intro & Main Riff]

e|---------------------------------------|
B|---------------------------------------|
G|---------------------------------------|
D|----------7-7-7-5--5-5-3-2-------------|(x2)
A|-3-3-3-5-------------------3-3-3-3-----|
E|---------------------------------------|

   C    F    C    F    C    F    C    F    C
e|---------------------------------------------------|
B|-1~~~ 1~~~ 1~~~ 1~~~ 1~~~ 1~~~ 1~~~ 1~~~ 1~~~~~~~~~|
G|-0~~~ 2~~~ 0~~~ 2~~~ 0~~~ 2~~~ 0~~~ 2~~~ 0~~~~~~~~~|   (This bit only plays after
D|-2~~~ 3~~~ 2~~~ 3~~~ 2~~~ 3~~~ 2~~~ 3~~~ 2~~~~~~~~~|      the riff in the intro)
A|-3~~~ 3~~~ 3~~~ 3~~~ 3~~~ 3~~~ 3~~~ 3~~~ 3~~~~~~~~~|
E|---------------------------------------------------|


[Solo]

e|------------------------------------|
B|------------------------------------|
G|------------------------------------|
D|-12~--10~--10----12/14-14-10-12-10--|
A|--------------12--------------------|
E|------------------------------------|

e|------------------------------------|
B|------------------------------------|
G|------------------------------------|
D|-10-12-10-12-14--10-12-10-12-10-----|(x2)
A|------------------------------------|
E|------------------------------------|

e|----------------|       e|-------------|
B|----------------|       B|-------------|
G|-12-------------|       G|-------------|
D|----12-10-10-10-|(x4)   D|-10-10-10-10-|
A|----------------|       A|-------------|
E|----------------|       E|-------------|

e|--------------------------------------------|        e|---------|
B|--------------------------------------------|        B|---------|
G|-12-12-12-12--------------------------------|        G|---------|
D|-------------14-14-12-14--12-14-12-14-12-14-|(x3)    D|-10~~~---|
A|--------------------------------------------|        A|---------|
E|--------------------------------------------|        E|---------|
            
Submit corrections


        The Village  lessons Hard to play? Try these video lessons and learn fast The Village  lessons
        
↑ Back to top | Tablatures and chords for acoustic guitar and electric guitar, ukulele, drums are parodies/interpretations of the original songs. You may use it for private study, scholarship, research or language learning purposes only