» » »

New Order - Run Tabs

Artists:  A B C D E F G H I J K L M N O P Q R S T U V W X Y Z # 

Run Tabs

(ver. 1) Click to play this song!
New Order
 Rating:
4.4/5 (7 votes)

 Run lessons Tabs too difficult? Try these video lessons and learn fast
 
                [Bass] 

e|---------------------------------------------------------------------------|
B|---------------------------------------------------------------------------|
G|---------------------------------------------------------------------------|
D|---------------------------------------------------------------------------|
A|---------------------------------------------------------------------------|
E|-8--8-8-8-8-8-8--1-1-1-1-1--8--8-8-8-8-8-8--1-1-1-1-1----------------------|

e|---------------------------------------------------------------------------|
B|---------------------------------------------------------------------------|
G|---------------------------------------------------------------------------|
D|---------------------------------------------------------------------------|
A|---------------------------------------------------------------------------|
E|-8--8-8-8-8-8-8--1-1-1-1-1--8--8-8-8-8-8-8--8-8-1-1-1----------------------|

[Guitar 1]

e|--0-x--0-0-0-0--x-x-x-x--x-x-x-x--0-x-0-x--0-0-0-0--x-x-x-x--x-x-x-x-------| 
B|--1-x--1-1-1-1--1-x-1-x--1-1-1-1--1-x-1-x--1-1-1-1--1-x-1-x--1-1-1-1-------|
G|--0-x--0-0-0-0--2-x-2-x--2-2-2-2--0-x-0-x--0-0-0-0--2-x-2-x--2-2-2-2-------|
D|--2-x--2-2-2-2--3-x-3-x--3-3-3-3--2-x-2-x--2-2-2-2--3-x-3-x--3-3-3-3-------|
A|--3-x--3-3-3-3--3-x-3-x--3-3-3-3--3-x-3-x--3-3-3-3--3-x-3-x--3-3-3-3-------|
E|--x-x--x-x-x-x--x-x-x-x--x-x-x-x--x-x-x-x--x-x-x-x--x-x-x-x--x-x-x-x-------|

e|--0-x--0-0-0-0--x-x-x-x--x-x-x-x--0-x-0-x--0-0-0-0--x-x-x-x--x-x-x-x-------| 
B|--1-x--1-1-1-1--1-x-1-x--1-1-1-1--1-x-1-x--1-1-1-1--1-x-1-x--3-3-3-3-------|
G|--0-x--0-0-0-0--2-x-2-x--2-2-2-2--0-x-0-x--0-0-0-0--2-x-2-x--4-4-4-4-------|
D|--2-x--2-2-2-2--3-x-3-x--3-3-3-3--2-x-2-x--2-2-2-2--3-x-3-x--5-5-5-5-------|
A|--3-x--3-3-3-3--3-x-3-x--3-3-3-3--3-x-3-x--3-3-3-3--3-x-3-x--5-5-5-5-------|
E|--x-x--x-x-x-x--x-x-x-x--x-x-x-x--x-x-x-x--x-x-x-x--x-x-x-x--x-x-x-x-------|


[Guitar 2- 00:18 sec] 

e|---------------------------------------------------------------------------|
B|-5--5-3-5--5-3-5--5-3-5-8-5-3--5--5-3-5--5-3-5--5-3-5--5-3-5-3-1-3---------|
G|---------------------------------------------------------------------------|
D|---------------------------------------------------------------------------|
A|---------------------------------------------------------------------------|
E|---------------------------------------------------------------------------|

[Guitar 3- 00:33 sec] 

e|---------------------------------------------------------------------------|
B|-1-1-3-6-5-1---1-1-3-6-5-1---1-1-3-6-5-3-1--6-5-3-1-3--1-1-----------------|
G|---------------------------------------------------------------------------|
D|---------------------------------------------------------------------------|
A|---------------------------------------------------------------------------|
E|---------------------------------------------------------------------------|

            
Submit corrections


        Run lessons Hard to play? Try these video lessons and learn fast Run lessons
        
↑ Back to top | Tablatures and chords for acoustic guitar and electric guitar, ukulele, drums are parodies/interpretations of the original songs. You may use it for private study, scholarship, research or language learning purposes only