» » »

New Order - Procession Tabs

Artists:  A B C D E F G H I J K L M N O P Q R S T U V W X Y Z # 

Procession Tabs

(ver. 1) Click to play this song!
New Order
 Rating:
4.3/5 (9 votes)

 Procession lessons Tabs too difficult? Try these video lessons and learn fast
 
                [Intro]
 
Synth only, guitar comes in accenting synth at (0:43)

e|-0-----------------|-0---------------|-0---------------|-0----------------|
B|-1-----------------|-1---------------|-1---------------|-1----------------|
G|-0-----------------|-0---------------|-0---------------|-0----------------|
D|-2-----------------|-2---------------|-2---------------|-2----------------|
A|-3-----------------|-3---------------|-3---------------|-3----------------|
E|-------------------|-----------------|-----------------|------------------|



[Verse]

e|-0---------------|----------------|
B|-1---------------|----------------|
G|-0---------------|----rest--------|
D|-2---------------|----------------|
A|-3---------------|----------------|
E|-----------------|----------------|

e|-1---------------|-0---------3----|
B|-----------------|----------------|
G|-----------------|----------------|
D|-----------------|----------------| play 3x
A|-----------------|----------------|
E|-----------------|----------------|

                                      crescendo ****************************
e|-----------------|----------------|-3-3----3-3----3-3--|-3-3----3-3----3-3--|
B|-----------------|----------------|-5-5----5-5----5-5--|-5-5----5-5----5-5--|
G|---rest----------|---rest---------|-5-5----5-5----5-5--|-5-5----5-5----5-5--|
D|-----------------|----------------|-5-5----5-5----5-5--|-5-5----5-5----5-5--|
A|-----------------|----------------|-3-3----3-3----3-3--|-3-3----3-3----3-3--|
E|-----------------|----------------|--------------------|--------------------|


  (1:01 - 1:34)
e|-3----3-3-----3-3-|-3----3-3-----3-3-|-3----3-3-----3-3-|-3---3-3-3-3---------|
B|-5----5-5-----5-5-|-5----5-5-----5-5-|-5----5-5-----5-5-|-5-----------6-5-----|
G|-5----5-5-----5-5-|-5----5-5-----5-5-|-5----5-5-----5-5-|-5-------------------| repeat similarly 
D|-5----5-5-----5-5-|-5----5-5-----5-5-|-5----5-5-----5-5-|-5-------------------| until 1:34
A|-3----3-3-----3-3-|-3----3-3-----3-3-|-3----3-3-----3-3-|-3-------------------|
E|------------------|------------------|------------------|---------------------|

   (1:35) Distorted guitar enters
e|-----------------------|-----------------------|-----------------------|-----------------------|
B|-6---x-x-6---x-x-6--x--|-6---x-x-6---x-x-6--x--|-6---x-x-6---x-x-6--x--|-6---x-x-6---x-x-6--x--|
G|-5---x-x-5---x-x-5--x--|-5---x-x-5---x-x-5--x--|-5---x-x-5---x-x-5--x--|-5---x-x-5---x-x-5--x--|
D|-7---x-x-7---x-x-7--x--|-7---x-x-7---x-x-7--x--|-7---x-x-7---x-x-7--x--|-7---x-x-7---x-x-7--x--|
A|-----------------------|-----------------------|-----------------------|-----------------------|
E|-----------------------|-----------------------|-----------------------|-----------------------|

e|-8--------8------------|-8---------8-----------|-8---------8-----------|-8---------8-----------|
B|-6--------6------------|-6---------6-----------|-6---------6-----------|-6---------6-----------|
G|-5--------5------------|-5---------5-----------|-5---------5-----------|-5---------5-----------|
D|-7--------7------------|-7---------7-----------|-7---------7-----------|-7---------7-----------|
A|-----------------------|-----------------------|-----------------------|-----------------------|
E|-----------------------|-----------------------|-----------------------|-----------------------|

   (1:47)
e|-----------------------|-----------------------|-----------------------|-----------------------|
B|-6---x-x-6---x-x-6--x--|-6---x-x-6---x-x-6--x--|-6---x-x-6---x-x-6--x--|-6---x-x-6---x-x-6--x--|
G|-5---x-x-5---x-x-5--x--|-5---x-x-5---x-x-5--x--|-5---x-x-5---x-x-5--x--|-5---x-x-5---x-x-5--x--|
D|-7---x-x-7---x-x-7--x--|-7---x-x-7---x-x-7--x--|-7---x-x-7---x-x-7--x--|-7---x-x-7---x-x-7--x--|
A|-----------------------|-----------------------|-----------------------|-----------------------|
E|-----------------------|-----------------------|-----------------------|-----------------------|

e|-0-----------------|-0---------------|-0---------------|-0----------------|
B|-1-----------------|-1---------------|-1---------------|-1----------------|
G|-0-----------------|-0---------------|-0---------------|-0----------------|
D|-2-----------------|-2---------------|-2---------------|-2----------------|
A|-3-----------------|-3---------------|-3---------------|-3----------------|
E|-------------------|-----------------|-----------------|------------------|



[Verse 2]

   (1:59 - 2:26)  Guitar plays single notes similar to this with rhythm changes

e|-3--------3--------|-3--------3--------|-3--------3--------|-3-----3-3-------|
B|-------------------|-------------------|-------------------|-----------6-5---|
G|-------------------|-------------------|-------------------|-----------------|
D|-------------------|-------------------|-------------------|-----------------|
A|-------------------|-------------------|-------------------|-----------------|
E|-------------------|-------------------|-------------------|-----------------|

   (2:27)
e|-0-----------------|-------------------|------------------|-------------------|
B|-------------------|-------------------|-1----------------|-------------------|
G|-------------------|----------------2--|------------------|----------------2--|
D|-------------------|-------------------|------------------|-------------------|
A|-------------------|-------------------|------------------|-------------------|
E|-------------------|-------------------|------------------|-------------------|

e|-------------------|-3--------3--------|-3--------3--------|-3-----3-3-------|
B|-1-----------------|-------------------|-------------------|-----------6-5---|
G|-------------------|-------------------|-------------------|-----------------|
D|-------------------|-------------------|-------------------|-----------------|
A|-------------------|-------------------|-------------------|-----------------|
E|-------------------|-------------------|-------------------|-----------------|

e|-------------------|-------------------|-------------------|------------------|
B|-------------------|-1-------1---------|-1--------1--------|-1-------1--------|
G|-5-----------------|-0-------0---------|-0--------0--------|-0-------0--------|
D|-------------------|-2-------2---------|-2--------2--------|-2-------2--------|
A|-------------------|-3-------3---------|-3--------3--------|-3-------3--------|
E|-------------------|-------------------|-------------------|------------------|

e|-------------------|-------------------|------------------|-------------------|
B|-1-------1---------|-1-------1---------|-1-------1--------|-1--------1--------|
G|-0-------0---------|-0-------0-------2-|-0-------0--------|-0--------0-----2--|
D|-2-------2---------|-2-------2---------|-2-------2--------|-2--------2--------|
A|-3-------3---------|-3-------3---------|-3-------3--------|-3--------3--------|
E|-------------------|-------------------|------------------|-------------------|

e|-------------------|-------------------|------------------|-------------------|
B|-1-------1---------|-1-------1---------|-1-------1--------|-1--------1--------|
G|-0-------0---------|-0-------0-------2-|-0-------0--------|-0--------0-----2--|
D|-2-------2---------|-2-------2---------|-2-------2--------|-2--------2--------|
A|-3-------3---------|-3-------3---------|-3-------3--------|-3--------3--------|
E|-------------------|-------------------|------------------|-------------------|

repeats C chords until solo



[Solo]
  
   (3:04)
e|-------------------|-------------------|
B|----3------3-------|-1-----0-----0h1---|
G|-2------2------2---|----2------------2-|  play 2x
D|-------------------|-------------------|
A|-------------------|-------------------|
E|-------------------|-------------------|

e|-------------------|-------------------|
B|-3------1------0---|----1------0---1---|
G|-----2------2------|-2------2----------| play 2x
D|-------------------|-------------------|
A|-------------------|-------------------|
E|-------------------|-------------------|

e|-------------------|-------------------|
B|----3------3-------|-1-----0-----0h1---|
G|-2------2------2---|----2------------2-|  play 2x
D|-------------------|-------------------|
A|-------------------|-------------------|
E|-------------------|-------------------|

e|-------------------|-------------------|
B|-3------1------0---|----1------0---1---|
G|-----2------2------|-2------2----------| play 2x
D|-------------------|-------------------|
A|-------------------|-------------------|
E|-------------------|-------------------|



[Ending]

   (3:33) play this line 2x
e|-3--3--3--1--1--1--1--1-|-----------------------|-3--3--3--1--1--1--1--1-|------------------------|
B|------------------------|-3--3--3--1--1--0--1p0-|------------------------|-3--3--3--3--3--3--3--3-|
G|------------------------|-----------------------|------------------------|------------------------|
D|------------------------|-----------------------|------------------------|------------------------|
A|------------------------|-----------------------|------------------------|------------------------|
E|------------------------|-----------------------|------------------------|------------------------|
   
  second guitar accents some chords with the line above but its hard to hear

   Ending chord
e|-------------------|-------------------|------------------|-------------------|
B|-3-----------------|-------------------|------------------|-------------------|
G|-2-----------------|-------------------|------------------|-------------------|
D|-5-----------------|-------------------|------------------|-------------------|
A|-------------------|-------------------|------------------|-------------------|
E|-------------------|-------------------|------------------|-------------------|
   
Synthesizer continues until end
            
Submit corrections


        Procession lessons Hard to play? Try these video lessons and learn fast Procession lessons
        
↑ Back to top | Tablatures and chords for acoustic guitar and electric guitar, ukulele, drums are parodies/interpretations of the original songs. You may use it for private study, scholarship, research or language learning purposes only