Home » N » New Order »

New Order - All The Way Bass

Artists:  A B C D E F G H I J K L M N O P Q R S T U V W X Y Z # 

All The Way Bass

(ver. 1) Click to play this song!
New Order
[Intro]

G|-----------------|-----------------|------------------|---------------------|
D|-5---5---5-5-5-5-|---0---0---0-0-0/|-7---7---7-7-7/10-|---10-10-10---10---0-|
A|-----------------|-----------------|------------------|---------------------|
E|-----------------|-----------------|------------------|---------------------|

G|-----------------|-----------------|------------------|--------------------|
D|-5---5---5-5-5-5-|---0---0---0-0-0/|-7---7---7-7-7/10-|---10---10-10-9-7-0-|
A|-----------------|-----------------|------------------|--------------------|
E|-----------------|-----------------|------------------|--------------------|


[Verse]  x2

G|-----------------|-----------------|------------------|--------------------|
D|-5---5---5-5-5-5-|---0---0---0-0-0/|-7---7---7-7-7/10-|---10---10-10-9-7-0-|
A|-----------------|-----------------|------------------|--------------------|
E|-----------------|-----------------|------------------|--------------------|

G|-----------------|-----------------|------------------|---------------------|
D|-5---5---5-5-5-5-|---0---0---0-0-0/|-7---7---7-7-7/10-|---10-10-10-10-9-7-0-|
A|-----------------|-----------------|------------------|---------------------|
E|-----------------|-----------------|------------------|---------------------|


[Chorus]  x4

G|---------------7-|---7-7-7---7---7/|-9---9---9-7-5-9-|---9-9-9--/12-12-12-|
D|-5---5---5-5-5---|-----------------|-----------------|--------------------|
A|-----------------|-----------------|-----------------|--------------------|
E|-----------------|-----------------|-----------------|--------------------|


[Pre-verse]  x2

G|-----------------|-----------------|------------------|--------------------|
D|-5---5---5-5-5-5-|---0---0---0-0-0/|-7---7---7-7-7/10-|---10---10-10-9-7-0-|
A|-----------------|-----------------|------------------|--------------------|
E|-----------------|-----------------|------------------|--------------------|


[Verse]  x4

G|-----------------|-----------------|------------------|--------------------|
D|-5---5---5-5-5-5-|---0---0---0-0-0/|-7---7---7-7-7/10-|---10---10-10-9-7-0-|
A|-----------------|-----------------|------------------|--------------------|
E|-----------------|-----------------|------------------|--------------------|


[Chorus]  x2

G|---------------7-|---7-7-7---7---7/|-9---9---9-7-5-9-|---9-9-9-9/12-12-12-|
D|-5---5---5-5-5---|-----------------|-----------------|--------------------|
A|-----------------|-----------------|-----------------|--------------------|
E|-----------------|-----------------|-----------------|--------------------|


[Solo]

G|-----------------|-----------------|-----------------|-----------------|
D|-0---0---0-0-0-5-|---5-5-5---5-5-5-|-0---0---0-0-0-7-|---0-7-0---0-7-7-|
A|-----------------|-----------------|-----------------|-----------------|
E|-----------------|-----------------|-----------------|-----------------|

G|-----------------|-----------------|-----------------|---------------7-|
D|-0---0---0-0-0-5-|---5-5-5---5-5-5-|-0---0---0-0-0-7-|---0-7-0-7-7-9---|
A|-----------------|-----------------|-----------------|-----------------|
E|-----------------|-----------------|-----------------|-----------------|

G|-----------------|-----------------|-----------------|-----------------|
D|-0---0---0-0-0-5-|---5-5-5-----5-5-|-0---0---0-0-0-7-|---0-7-0-7---7-7-|
A|-----------------|-----------------|-----------------|-----------------|
E|-----------------|-----------------|-----------------|-----------------|

G|-----------------|-----------------|---------------7-|---7-7-7-7-5-----|
D|-0---0---0-0-0-5-|---5-5-5---5-5-5-|-7---7---7-7-7---|-------------9-7-|
A|-----------------|-----------------|-----------------|-----------------|
E|-----------------|-----------------|-----------------|-----------------|


[Chorus]  x4

G|---------------7-|---7-7-7---7-7-7/|-9---9---9-7-5-9-|---9-9-9-9/12-12-12-|
D|-5---5---5-5-5---|-----------------|-----------------|--------------------|
A|-----------------|-----------------|-----------------|--------------------|
E|-----------------|-----------------|-----------------|--------------------|


[Outro] Repeat to fade

G|-----------------|-----------------|------------------|--------------------|
D|-5---5---5-5-5-5-|---0---0---0-0-0/|-7---7---7-7-7/10-|---10---10-10-9-7-0-|
A|-----------------|-----------------|------------------|--------------------|
E|-----------------|-----------------|------------------|--------------------|
            
Submit corrections

↑ Back to top | Tablatures and chords for acoustic guitar and electric guitar, ukulele, drums are parodies/interpretations of the original songs. You may use it for private study, scholarship, research or language learning purposes only