» » »

Newday - Gateway solo Tabs

Artists:  A B C D E F G H I J K L M N O P Q R S T U V W X Y Z # 

Gateway solo Tabs

(ver. 1) Click to play this song!
Newday
 Rating:
4.3/5 (26 votes)

 Gateway solo lessons Tabs too difficult? Try these video lessons and learn fast
 
                [Solo]
e|--------------|--------------------------|---------------|------------------------------------|
B|--------------|--------------------------|-----8---------|-------------------13---------------|
G|-7b9b7-5-7-5/-|--------------------------|-7b9---7-5--x-x|-12h14-12h14-12h14----14-12-14------|
D|--------------|7p5h7-5-------------------|---------------|------------------------------------|
A|--------------|--------7-5-3-5-3---------|---------------|------------------------------------|
E|--------------|------------------5-5-3-5-|---------------|------------------------------------|

e|---------------|----------------------------------------------------------------------------|
B|-15-13----13---|----------------------------------------------------------------------------|
G|-------15----15|----------------------12----14-12-14----------------------------------------|
D|---------------|-------------10-12-14----14-------------------------------------------------|
A|---------------|-------10-12----------------------------------------------------------------|
E|---------------|-10-12----------------------------------------------------------------------|

e|----------------------------------------------------------------------|20-19-15/17-15-15/17-|
B|------------------------------------------------17-x-x-17/20-x-x-20/22|---------------------|
G|-x-x-12/14-x-x-14/16-x-x-16/17-x-x-17-19-x-x-19-----------------------|---------------------|
D|----------------------------------------------------------------------|---------------------|
A|----------------------------------------------------------------------|---------------------|
E|----------------------------------------------------------------------|---------------------|            
Submit corrections


        Gateway solo lessons Hard to play? Try these video lessons and learn fast Gateway solo lessons
        
↑ Back to top | Tablatures and chords for acoustic guitar and electric guitar, ukulele, drums are parodies/interpretations of the original songs. You may use it for private study, scholarship, research or language learning purposes only