Home » N » New Amsterdams »

New Amsterdams - Slow Down Tabs

Artists:  A B C D E F G H I J K L M N O P Q R S T U V W X Y Z # 

Slow Down Tabs

(ver. 1) Click to play this song!
New Amsterdams
Verse:
E --------------------------------------------------
B ---3---3-------3---3--------2---2-------2---2-----
G --------------------------------------------------
D ---0------0----0------0---------------------------
A ----------------------------4------4----4------4--
E --------------------------------------------------

E --------------------------------------------------
B ---3---3-------3---3--------3---3-------3---3-----
G --------------------------------------------------
D --------------------------------------------------
A --------------------------------------------------
E ---3------3----3------3—----0------0----0------0—-

Bridge:
E --------------------------------------------------
B ---3---3-------3---3--------3---3-------3---3-----
G --------------------------------------------------
D --------------------------------------------------
A --------------------------------------------------
E ---3------3----3------3—----2------2----2------2—- 

E --------------------------------------------------
B ---3---3-------3---3--------3---3-------3---3-----
G --------------------------------------------------
D --------------------------------------------------
A --------------------------------------------------
E ---3------3----3------3—----0------0----0------0—- 

E --------------------------------------------------
B ---3---3-------3---3--------3---3-------3---3-----
G --------------------------------------------------
D --------------------------------------------------
A --------------------------------------------------
E ---3------3----3------3—----2------2----2------0—-

Versex4	Bridge	Versex2  Bridge
            
Submit corrections

↑ Back to top | Tablatures and chords for acoustic guitar and electric guitar, ukulele, drums are parodies/interpretations of the original songs. You may use it for private study, scholarship, research or language learning purposes only