» » »

Nevershoutnever - Trouble Tabs

Artists:  A B C D E F G H I J K L M N O P Q R S T U V W X Y Z # 

Trouble Tabs

(ver. 2) Click to play this song!
Nevershoutnever
 Rating:
4/5 (4 votes)

 Trouble lessons Tabs too difficult? Try these video lessons and learn fast
 
                He plays it on the ukelele, but you can put your capo on the 8th fret, 
and that'll work just fine:]

So anyways, let's restate the facts:
-Standard tuning(EADGBe)
-Capo on the 8th fret
-Tab is relative to the Capo's position


  Verse
  (0:02-0:18)  
e|-2--2--2--2-----3--3--3--3-----2--2--2--2-----3-----0--------|
B|-3--3--3--3-----0--0--0--0-----3--3--3--3-----0-----2--------|
G|-2--2--2--2-----0--0--0--0-----2--2--2--2-----0-----2--------|
D|-0--0--0--0-----0--0--0--0-----0--0--0--0-----0-----2--------|
A|----------------2--2--2--2--------------------2-----0--------|
E|----------------3--3--3--3--------------------3--------------|  x2
   This rhythm is just 1..2..3..4..
   and let the last two chords ring

  Pre-Chorus
  (0:19-0:34)
e|-2--2--2--2-----3--3--3--3-----2--2--2--2-----3-----0--------|
B|-3--3--3--3-----0--0--0--0-----3--3--3--3-----0-----2--------|
G|-2--2--2--2-----0--0--0--0-----2--2--2--2-----0-----2--------|
D|-0--0--0--0-----0--0--0--0-----0--0--0--0-----0-----2--------|
A|----------------2--2--2--2--------------------2-----0--------|
E|----------------3--3--3--3--------------------3--------------|  x2



  Chorus
  (0:35-1:05)
e|-x--x-x--x-x-x-----x--x-x--x-x-x-----3--3-3--3-3-3-----3--3-3--3-3-3--|
B|-x--x-x--x-x-x-----x--x-x--x-x-x-----0--0-0--0-0-0-----0--0-0--0-0-0--|
G|-x--x-x--x-x-x-----x--x-x--x-x-x-----0--0-0--0-0-0-----0--0-0--0-0-0--|
D|-x--x-x--x-x-x-----x--x-x--x-x-x-----0--0-0--0-0-0-----0--0-0--0-0-0--|
A|-x--x-x--x-x-x-----x--x-x--x-x-x-----2--2-2--2-2-2-----2--2-2--2-2-2--|
E|-x--x-x--x-x-x-----x--x-x--x-x-x-----3--3-3--3-3-3-----3--3-3--3-3-3--|
   This rhythm sounds like   1...1-2...1-2-3...1...1-2...1-2-3...


e|-2--2-2--2-2-2-----2--2-2--2-2-2-----3--3-3--3-3-3-----0--0-0--0-0-0--|
B|-3--3-3--3-3-3-----3--3-3--3-3-3-----0--0-0--0-0-0-----2--2-2--2-2-2--|
G|-2--2-2--2-2-2-----2--2-2--2-2-2-----0--0-0--0-0-0-----2--2-2--2-2-2--|
D|-0--0-0--0-0-0-----0--0-0--0-0-0-----0--0-0--0-0-0-----2--2-2--2-2-2--|
A|-------------------------------------2--2-2--2-2-2-----0--0-0--0-0-0--|
E|-------------------------------------3--3-3--3-3-3--------------------|  x2



  (1:06-1:09)
e|--2---2---2----|
B|--3---3---3----|
G|--2---2---2----|
D|--0---0---0----|
A|---------------|
E|---------------|




  Verse
  (1:10-1:25)
e|-2--2--2--2-----3--3--3--3-----2--2--2--2-----3-----0--------|
B|-3--3--3--3-----0--0--0--0-----3--3--3--3-----0-----2--------|
G|-2--2--2--2-----0--0--0--0-----2--2--2--2-----0-----2--------|
D|-0--0--0--0-----0--0--0--0-----0--0--0--0-----0-----2--------|
A|----------------2--2--2--2--------------------2-----0--------|
E|----------------3--3--3--3--------------------3--------------|  x2



  Pre-Chorus
  (1:26-1:41)
e|-2--2--2--2-----3--3--3--3-----2--2--2--2-----3-----0--------|
B|-3--3--3--3-----0--0--0--0-----3--3--3--3-----0-----2--------|
G|-2--2--2--2-----0--0--0--0-----2--2--2--2-----0-----2--------|
D|-0--0--0--0-----0--0--0--0-----0--0--0--0-----0-----2--------|
A|----------------2--2--2--2--------------------2-----0--------|
E|----------------3--3--3--3--------------------3--------------|  x2



  Chorus
  (1:42-2:14)
e|-x--x-x--x-x-x-----x--x-x--x-x-x-----3--3-3--3-3-3-----3--3-3--3-3-3--|
B|-x--x-x--x-x-x-----x--x-x--x-x-x-----0--0-0--0-0-0-----0--0-0--0-0-0--|
G|-x--x-x--x-x-x-----x--x-x--x-x-x-----0--0-0--0-0-0-----0--0-0--0-0-0--|
D|-x--x-x--x-x-x-----x--x-x--x-x-x-----0--0-0--0-0-0-----0--0-0--0-0-0--|
A|-x--x-x--x-x-x-----x--x-x--x-x-x-----2--2-2--2-2-2-----2--2-2--2-2-2--|
E|-x--x-x--x-x-x-----x--x-x--x-x-x-----3--3-3--3-3-3-----3--3-3--3-3-3--|



e|-2--2-2--2-2-2-----2--2-2--2-2-2-----3--3-3--3-3-3-----0--0-0--0-0-0--|
B|-3--3-3--3-3-3-----3--3-3--3-3-3-----0--0-0--0-0-0-----2--2-2--2-2-2--|
G|-2--2-2--2-2-2-----2--2-2--2-2-2-----0--0-0--0-0-0-----2--2-2--2-2-2--|
D|-0--0-0--0-0-0-----0--0-0--0-0-0-----0--0-0--0-0-0-----2--2-2--2-2-2--|
A|-------------------------------------2--2-2--2-2-2-----0--0-0--0-0-0--|
E|-------------------------------------3--3-3--3-3-3--------------------|  x2



e|--2--|
B|--3--|
G|--2--|
D|--0--|
A|-----|
E|-----|


The last 10 seconds or so, there's no instrumental part, but if you wanted to do something, 
you could just mute that last chord, using the rhythm from the chorus.  
            
Submit corrections


        Trouble lessons Hard to play? Try these video lessons and learn fast Trouble lessons
        
↑ Back to top | Tablatures and chords for acoustic guitar and electric guitar, ukulele, drums are parodies/interpretations of the original songs. You may use it for private study, scholarship, research or language learning purposes only