» » »

Nevershoutnever - Subliminal Messages Tabs

Artists:  A B C D E F G H I J K L M N O P Q R S T U V W X Y Z # 

Subliminal Messages Tabs

(ver. 2) Click to play this song!
Nevershoutnever
 Rating:
3.3/5 (29 votes)

 Subliminal Messages lessons Tabs too difficult? Try these video lessons and learn fast
 
                Intro:

e|---------0-----------------------------------------------------------------|
B|-------0--------0-------0-------0-0-----0-------0-------0-0----------------|
G|-----2----------2-------2-------2-2-----2-------2-------2-2----------------|
D|---1------------1---0h1-1-------1-1-----1---0h1-1-------1-1----------------|
A|-2------------2-------------0h2-------2-------------0h2--------------------|
E|---------------------------------------------------------------------------|

e|---------------------------------------------------------------------------|
B|---0-0------0-0----0-------0-------0-0-------------------------------------|
G|---5-5------3-3----2-------2-------2-2-------------------------------------|
D|---4-4------2-2----1---0h1-1-------1-1-------------------------------------|
A|-5-----0h3------2-------------0h2------------------------------------------|
E|---------------------------------------------------------------------------|

Verse:

e|---------------------------------------------------------------------------|
B|---2------2------3--10-9---------------------------------------------------|
G|---1------1------4--7--7---------------------------------------------------|
D|---2------2------4--9--8---------------------------------------------------|  x4
A|-0----0h1----0h2----7--7---------------------------------------------------|
E|---------------------------------------------------------------------------|

Chorus:

e|---------------------------------------------------------------------------|
B|---7---7-----6----6--------------------------------------------------------|
G|---7---7-----7----7---6------5------4------3-------------------------------|
D|---7---7-----7----7---7------6------5------4-------------------------------|
A|-5---5---0h5----5-----7------6------5------4-------------------------------|
E|--------------------5----5\4----4\3----3\2---------------------------------|

e|---------------------------------------------------------------------------|
B|---------------------------0-------0-------0-0-----0-------0-------0-0-----|
G|--1----4-----7---11-10-----2-------2-------2-2-----2-------2-------2-2-----|
D|---------------------------1---0h1-1-------1-1-----1---0h1-1-------1-1-----|
A|-2----5-----8----12-11---2-------------0h2-------2-------------0h2---------|
E|---------------------------------------------------------------------------|

e|---------------------------------------------------------------------------|
B|---0-0------0-0----0-------0-------0-0-------------------------------------|
G|---5-5------3-3----2-------2-------2-2-------------------------------------|
D|---4-4------2-2----1---0h1-1-------1-1-------------------------------------|
A|-5-----0h3------2-------------0h2------------------------------------------|
E|---------------------------------------------------------------------------|

Verse:

e|---------------------------------------------------------------------------|
B|---2------2------3--10-9---------------------------------------------------|
G|---1------1------4--7--7---------------------------------------------------|
D|---2------2------4--9--8---------------------------------------------------|  x4
A|-0----0h1----0h2----7--7---------------------------------------------------|
E|---------------------------------------------------------------------------|

Chorus:

e|---------------------------------------------------------------------------|
B|---7---7-----6----6--------------------------------------------------------|
G|---7---7-----7----7---6------5------4------3-------------------------------|
D|---7---7-----7----7---7------6------5------4-------------------------------|
A|-5---5---0h5----5-----7------6------5------4-------------------------------|
E|--------------------5----5\4----4\3----3\2---------------------------------|

e|---------------------------------------------------------------------------|
B|---------------------------0-------0-------0-0-----------------------------|
G|--1----4-----7---11-10-----2-------2-------2-2-----------------------------|
D|---------------------------1---0h1-1-------1-1-----------------------------|
A|-2----5-----8----12-11---2-------------0h2---------------------------------|
E|---------------------------------------------------------------------------|

Bridge:

e|---------------------------------------------------------------------------|
B|---2------2------3--10-9---------------------------------------------------|
G|---1------1------4--7--7---------------------------------------------------|
D|---2------2------4--9--8---------------------------------------------------| x4
A|-0----0h1----0h2----7--7---------------------------------------------------|
E|---------------------------------------------------------------------------|

Chorus:

e|---------------------------------------------------------------------------|
B|---7---7-----6----6--------------------------------------------------------|
G|---7---7-----7----7---6------5------4------3-------------------------------|
D|---7---7-----7----7---7------6------5------4-------------------------------|
A|-5---5---0h5----5-----7------6------5------4-------------------------------|
E|--------------------5----5\4----4\3----3\2---------------------------------|

e|---------------------------------------------------------------------------|
B|---------------------------------------------------------------------------|
G|--1----4-----7---11-10-----------------------------------------------------|
D|---------------------------------------------------------------------------| x2
A|-2----5-----8----12-11-----------------------------------------------------|
E|---------------------------------------------------------------------------|

e|---------------------------------------------------------------------------|
B|---0-------0-------0-0-----0-------0-------0-0-----------------------------|
G|---2-------2-------2-2-----2-------2-------2-2-----------------------------|
D|---1---0h1-1-------1-1-----1---0h1-1-------1-1-----------------------------| x3
A|-2-------------0h2-------2-------------0h2---------------------------------|
E|---------------------------------------------------------------------------|            
Submit corrections


        Subliminal Messages lessons Hard to play? Try these video lessons and learn fast Subliminal Messages lessons
        
↑ Back to top | Tablatures and chords for acoustic guitar and electric guitar, ukulele, drums are parodies/interpretations of the original songs. You may use it for private study, scholarship, research or language learning purposes only