» » »

Nevershoutnever - I Just Laugh Tabs

Artists:  A B C D E F G H I J K L M N O P Q R S T U V W X Y Z # 

I Just Laugh Tabs

(ver. 3) Click to play this song!
Nevershoutnever
 Rating:
4/5 (4 votes)

 I Just Laugh lessons Tabs too difficult? Try these video lessons and learn fast
 
                This is the just normal playing version of the song

NO capo
standard tuning

e|------------------------------------------------|
B|------------------------------------------------|
G|------------------------------------------------|
D|--------------2--------------2------------------|
A|-0-0--0-0-2h4---0-0--0-0-2h4---0-0--0-0-4b4p2h4-|
E|------------------------------------------------| x2

play each chord a few times

e|--5------5---5------5--|
B|--5------7---5------7--|
G|--6------7---6------7--|
D|--7------7---7------7--|
A|--7------5---7------5--|
E|--5----------5---------|

play each chord only once

e|--5---5---3---5---5--|
B|--5---7---3---7---5--|
G|--6---7---4---7---6--|
D|--7---7---5---7---7--|
A|--7---5---5---5---7--|
E|--5-------3-------5--|


e|----------------------------------------------------------------|
B|----------------------------------------------------------------|
G|-7-7-7--7-7-----------7-7-7--7-7-----------7-7-7--7-7-----------|
D|-7-7-7--7-7-----------7-7-7--7-7-----------7-7-7--7-7-----------|
A|-5-5-5--5-5-----------5-5-5--5-5-----------5-5-5--5-5-----------|
E|----------------------------------------------------------------|

e|-------------------------------------------------------------|
B|-------------------------------------------------------------|
G|--------------2-2-2---------------2-2-2---------------2-2-2--|
D|-2-2-2--2-2-2-2-2-2--2-2-2--2-2-2-2-2-2--2-2-2--2-2-2-2-2-2--|
A|-2-2-2--2-2-2-0-0-0--2-2-2--2-2-2-0-0-0--2-2-2--2-2-2--------|
E|-0-0-0--0-0-0--------0-0-0--0-0-0--------0-0-0--0-0-0--------|

e|------------------------|
B|------------------------|
G|------------------------|
D|--------------2-4b~4\2--|
A|-0-0--0-0-2h4-----------|
E|------------------------|

e|------------------------------------------------|
B|------------------------------------------------|
G|------------------------------------------------|
D|--------------2--------------2------------------|
A|-0-0--0-0-2h4---0-0--0-0-2h4---0-0--0-0-4b4p2h4-|
E|------------------------------------------------| x2

play each chord only once

e|--5---5---3---5---5--|
B|--5---7---3---7---5--|
G|--6---7---4---7---6--|
D|--7---7---5---7---7--|
A|--7---5---5---5---7--|
E|--5-------3-------5--|

e|----------------------------------------------------------------|
B|----------------------------------------------------------------|
G|-7-7-7--7-7-----------7-7-7--7-7-----------7-7-7--7-7-----------|
D|-7-7-7--7-7-----------7-7-7--7-7-----------7-7-7--7-7-----------|
A|-5-5-5--5-5-----------5-5-5--5-5-----------5-5-5--5-5-----------|
E|----------------------------------------------------------------|

e|-------------------------------------------------------------|
B|-------------------------------------------------------------|
G|--------------2-2-2---------------2-2-2---------------2-2-2--|
D|-2-2-2--2-2-2-2-2-2--2-2-2--2-2-2-2-2-2--2-2-2--2-2-2-2-2-2--|
A|-2-2-2--2-2-2-0-0-0--2-2-2--2-2-2-0-0-0--2-2-2--2-2-2--------|
E|-0-0-0--0-0-0--------0-0-0--0-0-0--------0-0-0--0-0-0--------|

e|---------------------------------|
B|---------------------------------|
G|----------------------2-2-2-22-2-|
D|-2-2-2--2-2-2--2-2-2--2-2-2-22-2-|
A|-2-2-2--2-2-2--2-2-2--0-0-0-00-0-|
E|-0-0-0--0-0-0--0-0-0-------------|

e|----------------------------------------------------------------|
B|----------------------------------------------------------------|
G|-7-7-7--7-7-----------7-7-7--7-7-----------7-7-7--7-7-----------|
D|-7-7-7--7-7-----------7-7-7--7-7-----------7-7-7--7-7-----------|
A|-5-5-5--5-5-----------5-5-5--5-5-----------5-5-5--5-5-----------|
E|----------------------------------------------------------------|

e|-------------------------------------------------------------|
B|-------------------------------------------------------------|
G|--------------2-2-2---------------2-2-2---------------2-2-2--|
D|-2-2-2--2-2-2-2-2-2--2-2-2--2-2-2-2-2-2--2-2-2--2-2-2-2-2-2--|
A|-2-2-2--2-2-2-0-0-0--2-2-2--2-2-2-0-0-0--2-2-2--2-2-2--------|
E|-0-0-0--0-0-0--------0-0-0--0-0-0--------0-0-0--0-0-0--------|

e|--------------------------------------|
B|--------------------------------------|
G|--------------------------------------|
D|--------------2-------------2---------|
A|-0-0--0-0-2h4---0-0--0-0-2h4---0-0--0-|
E|--------------------------------------|
            
Submit corrections


        I Just Laugh lessons Hard to play? Try these video lessons and learn fast I Just Laugh lessons
        
↑ Back to top | Tablatures and chords for acoustic guitar and electric guitar, ukulele, drums are parodies/interpretations of the original songs. You may use it for private study, scholarship, research or language learning purposes only