» » »

Nevershoutnever - Can't Stand It Tabs

Artists:  A B C D E F G H I J K L M N O P Q R S T U V W X Y Z # 

Can't Stand It Tabs

(ver. 3) Click to play this song!
Nevershoutnever
 Rating:
4/5 (4 votes)

 Can't Stand It lessons Tabs too difficult? Try these video lessons and learn fast
 
                                             Can't Stand It

This is what you hear when the guitar plays

e---------------------------------------------|
B-12-12--12-12--12-12--10-8-10-12-15-12-10-12-|
G---------------------------------------------|
D---------------------------------------------|    X2
A---------------------------------------------|
E---------------------------------------------|


e-------------------------------------------|------------------|
B-12-10-8-10-12--12-10-8-10-12--10-12-12-10-|------------------|
G-------------------------------------------|-9-10-9-7---------|
D-------------------------------------------|----------10-9--7-|
A-------------------------------------------|------------------|
E-------------------------------------------|------------------|

Towards the end, Piano comes in slow.

e----15----------------------------15-------|
B-13----12-10-12-10-12-10--8-10-12----------|
G-------------------------------------------|
D-------------------------------------------|
A-------------------------------------------|
E-------------------------------------------|


e---------------------------12--------------|
B-12-10-12-10-12-10--8-8-10----15-14-12-----|
G-------------------------------------------|
D-------------------------------------------|
A-------------------------------------------|
E-------------------------------------------|


e----15------------------------19-17--------|
B-13----17-15-15-17--15-15--15--------------|
G-------------------------------------------|
D-------------------------------------------|
A-------------------------------------------|
E-------------------------------------------|


e-------------------19-17-----------------------------|
B-17-15-15-17-15-15-------12-12-11-10-8----8-11-11-10-|
G-----------------------------------------------------|
D-----------------------------------------------------|
A-----------------------------------------------------|
E-----------------------------------------------------|
            
Submit corrections


        Can't Stand It lessons Hard to play? Try these video lessons and learn fast Can't Stand It lessons
        
↑ Back to top | Tablatures and chords for acoustic guitar and electric guitar, ukulele, drums are parodies/interpretations of the original songs. You may use it for private study, scholarship, research or language learning purposes only