» » »

Neutral Milk Hotel - In The Aeroplane Over The Sea Bass

Artists:  A B C D E F G H I J K L M N O P Q R S T U V W X Y Z # 

In The Aeroplane Over The Sea Bass

(ver. 3) Click to play this song!
Neutral Milk Hotel
 Rating:
4.4/5 (5 votes)

 In The Aeroplane Over The Sea lessons Tabs too difficult? Try these video lessons and learn fast
 
                
[Verse] (starts at 00:39)
G|----------------|----------------|----------------|----------------|
D|----------------|----------------|----------------|----------------|     (repeat x4)
A|---------------5|7\\\\\--2-------|3---------------|5---------------|
E|3---------------|----------------|---------------3|-------5--------|

[Bridge]
G|----------------|----------------|----------------|----------------|
D|----------------|----------------|----------------|----------------|
A|----------------|3--------------3|----------------|5--------------5|
E|0--------------0|----------------|3--------------3|----------------|

G|----------------|----------------|----------------|----------------|
D|----------------|----------------|----------------|----------------|
A|----------------|3--------------3|----------------|5---------------|
E|0--------------0|----------------|3--------------3|----------------|

[Chorus] 
G|----------------|----------------|----------------|----------------|
D|----------------|----------------|----------------|----------------|     (repeat x4)
A|---------------5|7\\\\\--2-------|3---------------|5---------------|
E|3---------------|----------------|---------------3|-------5--------|

G|----------------|----------------|----------------|----------------|
D|----------------|----------------|----------------|----------------|
A|----------------|----------------|3---------------|3--------------3|
E|0--------------0|0--------------0|---------------3|----------------|
                                                                           (repeat x2)
G|----------------|----------------|----------------|----------------|
D|----------------|----------------|----------------|----------------|
A|----------------|----------------|5---------------|5---------------|
E|3------------(n)|3--------------3|---------------5|-------5\\\-----|

[Bridge]
G|----------------|----------------|----------------|----------------|
D|----------------|----------------|----------------|----------------|
A|----------------|----------------|3---------------|3--------------3|
E|0---------------|0---------------|------------0--3|----------------|

G|----------------|----------------|----------------|----------------|
D|----------------|----------------|----------------|----------------|
A|----------------|----------------|5---------------|5--------------5|
E|3----(hold)-----|---------------3|------------(n)5|----------------|

[Verse]
G|----------------|----------------|----------------|----------------|
D|----------------|----------------|----------------|----------------|     (repeat x4)
A|---------------5|7\\\\\--2-------|3---------------|5---------------|
E|3---------------|----------------|---------------3|-------5--------|            
Submit corrections


        In The Aeroplane Over The Sea lessons Hard to play? Try these video lessons and learn fast In The Aeroplane Over The Sea lessons
        
↑ Back to top | Tablatures and chords for acoustic guitar and electric guitar, ukulele, drums are parodies/interpretations of the original songs. You may use it for private study, scholarship, research or language learning purposes only