» » »

Neutral Milk Hotel - Glue Tabs

Artists:  A B C D E F G H I J K L M N O P Q R S T U V W X Y Z # 

Glue Tabs

(ver. 1) Click to play this song!
Neutral Milk Hotel
 Rating:
4/5 (4 votes)

 Glue lessons Tabs too difficult? Try these video lessons and learn fast
 
                Tuning: D A D F# A D



Opening:

d |----------------------------------------------------------|
a |----------------------------------------------------------|
F#|----------------------------------------------------------|
D |--12--10---------------------------------12--10-----------|
A |---------12--10--10-h12-10---5------------------12--10----|
D |-0-------------------------------------0------------------| X2


|-0---------0------0--------------------0-----------0-----------------|
|-0---------0------0--------------------0-----------0-----------------|
|-0---------0------0--------------------0-----------0-----------------|
|-0---------0------0--------------------0-----------0-----------------|
|-5---------7------9--------------------12----------19----------------|
|-0---------0------0--------------------0-----------0-----------------|


These two parts aren't needed, but are in the recording, you'll have to listen to the 
song to figure out the strumming pattern

Verse:

|-0------0--------0--------------------0----------------0-----------------|
|-0------0--------0--------------------0----------------0-----------------|
|-0------0--------0--------------------0----------------0-----------------|
|-0------0--------0--------------------0----------------0-----------------|
|-5------7--------9--------------------4----------------5-----------------|
|-0------0--------0--------------------5----------------5-----------------|

 She    comes     to me whenever I am locked inside my room


|-0------------0---------------0-------------------------------------|
|-0------------0---------------0-------------------------------------|
|-0------------0---------------0-------------------------------------|
|-0------------0---------------0-------------------------------------|
|-4------------5---------------9-------------------------------------|
|-5------------5---------------0-------------------------------------|

Buried in the tune that I call love


|----0-------0--------------------0------------0----------0----------0|
|----0-------0--------------------0------------0----------0----------0|
|----0-------0--------------------0------------0----------0----------0|
|----0-------0--------------------0------------0----------0----------0|
|----7-------9--------------------4------------5----------4----------5|
|----0-------0--------------------5------------5----------5----------5|

She sings to me, the words I cannot hear but then, the melody's so clear


Chorus:

|------------7--------------------5----------7---------------------5---------------------0-----|
|------------7--------------------5----------7---------------------5---------------------0-----|
|------------7--------------------5----------7---------------------5---------------------0-----|
|------------7--------------------5----------7---------------------5---------------------0-----|
|------------7--------------------5----------7---------------------5---------------------9-----|
|------------7--------------------5----------7---------------------5---------------------0-----|
It makes me cry, her love is so beautiful          Her love is so real, it smells like glue



Verse:

She's leaving me to find a place she never will call home
I stand shaking like a stone

And smile inside

She's calling me to come to her and curl inside her womb
I hear lies, acid too


Chorus:

But I won't die, the pain is so beautiful

The urge is so real, it smells like glue


Ending:

|--------7--------------------5----------------7----------------------|
|--------7--------------------5----------------7----------------------|
|--------7--------------------5----------------7----------------------|
|--------7--------------------5----------------7----------------------|
|--------7--------------------5----------------7----------------------|
|--------7--------------------5----------------7----------------------|
                 And I will scream, she hears  me

|--------7--------------------5----------------7----------------------|
|--------7--------------------5----------------7----------------------|
|--------7--------------------5----------------7----------------------|
|--------7--------------------5----------------7----------------------|
|--------7--------------------5----------------7----------------------|
|--------7--------------------5----------------7----------------------|
                I will tell myself she loves   me

|--------7--------------------5----------------------------0---------|
|--------7--------------------5----------------------------0---------|
|--------7--------------------5----------------------------0---------|
|--------7--------------------5----------------------------0---------|
|--------7--------------------5----------------------------9---------|
|--------7--------------------5----------------------------0---------|

        And all the lies and fears Will stick to me like glue


|-0---------0------0--------------------0-----------0-----------------|
|-0---------0------0--------------------0-----------0-----------------|
|-0---------0------0--------------------0-----------0-----------------|
|-0---------0------0--------------------0-----------0-----------------|
|-5---------7------9--------------------12----------19----------------|
|-0---------0------0--------------------0-----------0-----------------|


|-0------------------|
|-0------------------|
|-0------------------|
|-0------------------|
|-5------------------|
|-0------------------|
            
Submit corrections


        Glue lessons Hard to play? Try these video lessons and learn fast Glue lessons
        
↑ Back to top | Tablatures and chords for acoustic guitar and electric guitar, ukulele, drums are parodies/interpretations of the original songs. You may use it for private study, scholarship, research or language learning purposes only