» » »

Nesian Mystik - What's Next? Tabs

Artists:  A B C D E F G H I J K L M N O P Q R S T U V W X Y Z # 

What's Next? Tabs

(ver. 2) Click to play this song!
Nesian Mystik
 Rating:
4/5 (4 votes)

 What's Next? lessons Tabs too difficult? Try these video lessons and learn fast
 
                Thanks for the previous tabs, which I have started from...

Guitar 2 tab is the rhythm/chords.


[Intro]

Guitar 2 plays the marked chords - one slow strum for each chord.
For this guitar 1 solo I haven't worried too much about the exact timing,
just tried to get the notes right.


e|--4h5p4---4--4------444-4-4-5-7-7-7-5-4h5p4--4—---4---4----------|
b|--------7-----------------------------------7--7-----------------|
g|-----------------------------------------------------------------|
d|-----------------------------------------------------------------|
a|-----------------------------------------------------------------|
e|-----------------------------------------------------------------|
             C#m                 A               C#m


e|------------------------------------------|
b|-777777--5--4--4--------------------------|
g|-----------------------4-2-1h2p1---1------|
d|--------------------------------4---------|
a|------------------------------------------|
e|------------------------------------------|
         A                    G#

e|-------------------------------------------|
b|-------------------------------------------|
g|-------------------------------------------|
d|-4-2-1h2p1---1-----------------------------|
a|-----------4---4--2--0---------------------|
e|-----------------------4--5p4-7-4-5p4------|
  (no chord)

e|------------------------------4-5---7------------|
b|------------------------4-5-7--------------------|
g|-------------------4--6--------------------------|
d|-------------4-6-7-------------------------------|
a|-------4-6-7-------------------------------------|
e|-4-5-7-------------------------------------------|


e|9-9-9-9----------------------------------|
b|---------9-10-10-10-7--9-----------------|
g|-----------------------------------------|
d|-----------------------------------------|
a|-----------------------------------------|
e|-----------------------------------------|

e|-----------------------------------------|
b|-9---9h10p9---9--7-9h10-9----------------|
g|-----------------------------------------|
d|-----------------------------------------|
a|-----------------------------------------|
e|-----------------------------------------|
                      (lyrics begin...)


[Main section]

Guitar 2 strums 3 chords on a repeating 8 bar progression.
There’s a hint of a high C# note on some C#m chords,
so I've tabbed that chord on the 9th rather than the 4th fret.

   C#m   A   G#
e|--9----5---4----|
b|--9----5---4----|
g|--9----6---5----|
d|--11---7---6----|
a|--11---7---6----|
e|--9----5---4----|

   1           2           3           4
| C#m . . . | C#m . . . | C#m . . . | C#m . . G# |

   5           6           7           8
| C#m . . . | C#m . . . | C#m . . . |  .  . A G# |

The strum is a flamenco style strum on each beat where the chord is written.
The dots mark the beats without a guitar strum.


Guitar 1 plays occasional riffs, together with flute/keyboard.
I've selected 3 riffs below,
not worrying about where they come or which instrument,
just to get people started if they are interested in this part...


   1   2   3   4   5   6   7   8
e|-----------------5h7p5---4h5p4---|
b|-----------------------7---------|
g|---------------------------------|
d|---------------------------------|
a|---------------------------------|
e|---------------------------------|
 |C#m      .       .       .       |C#m



   1    2    3    4    5     6     7    8
e|---------------------------12-16-----------|
b|------------------------14-------9-10-9----|-9
g|---------------------14-----------------11-|
d|-------------------------------------------|
a|-------------------------------------------|
e|-------------------------------------------|
 |C#m        .         .           .         | (.  .  A  G#)


   1   2   3   4   5   6    7   8
e|-----------------9--------9p7-9----|
b|-------------------9-10-9-------10-|-9
g|-----------------------------------|
d|-----------------------------------|
a|-----------------------------------|
e|-----------------------------------|
 |C#m      .       .        .        |C#m
            
Submit corrections


        What's Next? lessons Hard to play? Try these video lessons and learn fast What's Next? lessons
        
↑ Back to top | Tablatures and chords for acoustic guitar and electric guitar, ukulele, drums are parodies/interpretations of the original songs. You may use it for private study, scholarship, research or language learning purposes only