» » »

Nesian Mystik - Brothaz Tabs

Artists:  A B C D E F G H I J K L M N O P Q R S T U V W X Y Z # 

Brothaz Tabs

(ver. 2) Click to play this song!
Nesian Mystik
 Rating:
2.8/5 (28 votes)

 Brothaz lessons Tabs too difficult? Try these video lessons and learn fast
 
                Tuning: Standard


VERSE:

    Now it's been a while...
e|-------------------------------------|
B|------1-0--3-------------------------|
G|---4--2-0--4--7-9--------------------|
D|---5----------7-9--------------------|
A|-------------------------------------|
E|-0---0---3----7-9--------------------|


CHORUS:

    Now bro I'll be there for you,
e|------------585----------------------|
B|---78-876-6----686-----8--8-7-5-3----|
G|---7--765-5-------5----8--8-7-5-3-53-|
D|---79-987-7--------7---8--8-7-5-3----|
A|---7--765-5------------10-109-7-5----|
E|-0-7--765-5----------8-8--8-7-5-3----|
      h        hp hp


BRIDGE:

    Ya shadow if inclined to bare the soul
e|---3--3------------------710---7-----|
B|-5--5-5-7-7---7--78-8--8-8-8---8-----|
G|-4----4-7--7--7--7---7-7-7--7--7-----|
D|-5------7----77--9-----9-9----99-----|
A|-3------5--------7-----7-7-----------|
E|-------------------------------------|
                    h       h
            
Submit corrections


        Brothaz lessons Hard to play? Try these video lessons and learn fast Brothaz lessons
        
↑ Back to top | Tablatures and chords for acoustic guitar and electric guitar, ukulele, drums are parodies/interpretations of the original songs. You may use it for private study, scholarship, research or language learning purposes only